Guitaretab - guitar tabs
Song name
# A B C D E F G H I J K L M N O P Q R S T U V W X Y Z

Browne Jackson - Take It Easy tab

E---------------------------------------------------|
B-----------8-11-11-11-11-11-11-10-11-10-8---------|
G------------10-----------------------------10-10---|
D-----7-10------------------------------------------|
A-8-8-----------------------------------------------|
E---------------------------------------------------|

E-------------------------------------------------|
B-------------------------------------------------|
G-10----------10----------------------------------|
D----10-7-10----10-7-----------7-8-7-10-8-7-------|
A-----------------------10-8-8-------------10-8---|
E-------------------------------------------------|
[ Tab from: http://www.guitaretab.com/b/browne-jackson/2503.html ]
E-----------13-17-13-------------------------------|
B----10-13-----------13-13-10---13--13-11-10-------|
G-10------------------------------10--------10-10--|
D--------------------------------------------------|
A--------------------------------------------------|
E--------------------------------------------------|

E-----------------------------------------------------------------|
B-----------------------------------------------------------------|
G---------------------------------------1-3-----------------------|
D--------------10/12-10-7-10---------1-3---3-1----1-3---1-3-------|
A-10-8-8-8-8----------------------1-3----------3-1---3-1----------|
E------------------------------1-3--------------------------------|


This is my FIRST tab so dont hate, i think its mostly right at least its a start for the solo
Related for Take It Easy tab