Song name
# A B C D E F G H I J K L M N O P Q R S T U V W X Y Z

Brownie Mcghee - Key To The Highway tab

  http://en.wikipedia.org/wiki/Brownie_McGhee

This is the video from which I tabbed the song. 
or

http://www.youtube.com/watch?v=2PyerfCZvXk


It doesn't look exactly like what Brownie Mc Ghee palayed on the Pete Seger show (with 
Terry) but it's a nice straight forward arrangement with a good shot of the dude's left 
Personally I rather do a thumb wrap than barre the F#.

      E7                 C#                   F#                B7
      |--3--|   |--3--|  |--3--|  |--3--|     |--3--|  |--3--|  |--3--|  |--3--|
      E  E  E   E  E  E  E  E  E  E  E  E     E  E  E  E  E  E  E  E  E  E  E  E
E||-------------------7--0-----------------|--------2--------------------0--------|
B||--/9-----9--10--------------2--2--------|--------2-----------0-----------------|
G||-------------------------------------0--|--3--------3-----0--------2-----0--1--|
D||--/9---------9-----------------3--------|-----------------------------1--------|
A||----------------------------4-----------|--------------------2-----------------|
E||----------------------9-----------------|-----------2--------------------------|


                                                                     I've got the
  E                                      E                  B7
  |--3--|  |--3--|  |--3--|  |--3--|     |--3--|  |---3--|  |--3--|  |----3---|
  E  E  E  E  E  E  E  E  E  E  E  E     E  E  E  E  E   E  E  E  E  E    E   E
--0-----0-----------------------------|--------0--0------------------2p---0-------|
--0-----0--------3--------2--------1--|--0-----0--0---------------0-----------0---|
-----1--------4--------3--------2-----|-------------------------------------------|
--------------------------------------|--2----------------------------------------|
--2--------5--------4--------3--------|--------------0h--1--2---------------------|
--0-----------------------------------|-------------------------------------------|


  keys                                 to the      highway                          and I'm
  Give    me one       more       kiss             mama
  E7                                               B/A
  |---3---|  |---3--|  |---3---|  |---3---|        |----3---|  |--3--|  |--3--|  |---3--|
  E    E  E  E   E  E  E    E  E  E    E  E        E     E  E  E  E  E  E  E  E  E  E   E
----------4--4-----------------4--4-----------|----------------5--------5-----7--7--L-------|
----------3---------3----------3----------3---|--3g4--------4--------4-----------4----------|
-------x--4---------4----------4-------x--4---|--3g4--------------------------------x---x---|
----------------------------------------------|--3g4-----------4--------4--------4----------|
----------------------------------------------|----0-----------0--------0--------0----------|
--0----------0---------0----------0-----------|---------------------------------------------|


  bound                                 to    go                      I'm   gon     na
  Just                       be fore    I     go                      Cause when    I
  A           A7                              A        A7                           A
  |----3---|  |--3--|  |--3--|  |---3---|     |--3--|  |--3--|  |--3--|     |---3---|
  E     E  E  E  E  E  E  E  E  E    E  E     E  E  E  E  E  E  E  E  E     E    E  E
-----------3--3-----3--3-----2-------------|--------3--3-----3--3--2-------------------|
--2-----------2-----2--2--------5-------2--|--2--------2-----2--2-----5-----5-------2--|
--2----------------------------------------|--2-------------------------------------2--|
--------------2-----------------2----------|-----------2--------------------2-------2--|
--0--------------------0--------0----------|--0-----------------0-----------0-------0--|
-------------------------------------------|-------------------------------------------|


   leave       here      run     ning cause          wal    king is          most       too
   leave       this      time         I              may         not    come back       no
   E7                    C#                          F#                      B7
   |---3---|   |---3--|  |---3---|    |----3---|     |---3--|    |---3--|    |---3---|  |---3--|
   E    E  E   E   E  E  E    E  E    E     E  E     E   E  E    E   E  E    E    E  E  E  E  E
----------------------7--0------------------------|---------2---------------------------0--------|
--/9-------9--10-----------------2----2-----------|---------2----------------0-------------------|
-----------------------------------------------0--|--3-----------3------0------------2------0--1-|
--/9-----------9----------------------3-----------|-------------------------------------1--------|
---------------------------------4----------------|--------------------------2-------------------|
-------------------------9------------------------|--------------2-------------------------------|


  slow
  more
  E                                                           B7
  |---3---|  |--3--|  |--3--|  |--3--|     |--3--|  |---3--|  |--3--|  |---3--|
  E    E  E  E  E  E  E  E  E  E  E  E     E  E  E  E  E   E  E  E  E  E   E  E
--0-------0-----------------------------|--------0--0------------------2p--0-----|
--0-------0--------3--------2--------1--|--0-----0--0---------------0---------0--|
----------------4--------3--------2-----|----------------------------------------|
----------------------------------------|--2-------------------------------------|
--2----------5--------4--------3--------|--------------0h--1--2------------------|
--0-------------------------------------|----------------------------------------|


  H        H
--0-----------------||
--0-----------------||
--1-----------------||
--2-----------------||
--2-----------------||
--0-----------------||


Sure as the sun keeps shining in
skies up above
I'm gonna keep on walkiing the highway
til I find me somebody to love

I woke up this morning
put on my highway shoes
didn't take me to long til I
had those highway blues

I got out on the highway
That old Greyhound bus had gone
started thining bout that girl and
sure been walking long

Been round the Golden Gates
California to the rocky shores of Main
Been on the highway so long that "The
Highway's" my middle name

I'll eat my breakfast right here in New York City
Could get my dinner in New Orleans
I'm the highway walkingest man that the world have ever seen

So Long Peoples
I'll soon say "Good bye"
I'm gonna roam this highway
Til the day I die

(This verse was not sung but here it is anyway)
When the moon peek over the mountain
Honey, i'll be on my way
I'm gonna roam this highway
Til my dying day
Tap to rate this tab
 
# A B C D E F G H I J K L M N O P Q R S T U V W X Y Z