Song name
# A B C D E F G H I J K L M N O P Q R S T U V W X Y Z

Brownman Revival - Under The Reggae Moon tab

Band: Brownman Revival
Song: Under The Regae Moon

hi guyz e2 pampalipas oras
more life on reggae

intro:
e-----------------------------------|
b-----------------------------------|
g---11----8-------------------------|
d-------------9---------------------|
a-----------------------------------|
e-----------------------------------|

strumming n2 pitik lng ng up down
e---8--------10--------7----------------|
b---9--------11--------7----------------|
g---9--(2x)--11--(2x)--8--(4x)----------|
d---9--------11--------9----------------|
a---8--------10--------9----------------|
e---8--------10--------7----------------|


yun lng paulit ulit lng yan depende n yan s strumming s whole song...
WANTED: TXT M8T CUTE GIRLS ONLY....09286040620
Tap to rate this tab
# A B C D E F G H I J K L M N O P Q R S T U V W X Y Z