Song name
# A B C D E F G H I J K L M N O P Q R S T U V W X Y Z

Brownsville Station - Smokin In The Boys Room tab

Smokin' In The Boy's Room - Brownsville Station

Guitar Solo - transcribed by Rick Devone

This solo is comprised of 5 guitar licks.  I separated them for easier learning.

Symbols:
 u = bend up (in this song all bends are full 1 step bends)
 n = unbend string


(1)
-----------------------------------------|
-----------------15-----15-----17u-------|
--------16-------------------------------|
-----------------------------------------|
-----------------------------------------|
-----------------------------------------|


(2)
---------------------------------------------------|
---------20u---18------18-------20---18------------|
-----19------------19------19-------------19---17--|
---------------------------------------------------|
---------------------------------------------------|
---------------------------------------------------|


(3)
---------------------------------------------------|
--------15-------17u---17n---15---17------15---17--|
----16------16------------------------16-----------|
---------------------------------------------------|
---------------------------------------------------|
---------------------------------------------------|


(4)
-----------------------------------|
------17u---17n---15---17------15--|
---------------------------16------|
-----------------------------------|
-----------------------------------|
-----------------------------------|


(5)
------17---17---17---17---17--------17---17---17---17---17-----------------|
-17u--------------------------17u----------------------------17u---17n-----|
---------------------------------------------------------------------------|
---------------------------------------------------------------------------|
---------------------------------------------------------------------------|
---------------------------------------------------------------------------|
Tap to rate this tab
 
# A B C D E F G H I J K L M N O P Q R S T U V W X Y Z