Song name
# A B C D E F G H I J K L M N O P Q R S T U V W X Y Z

Bruce Cockburn - Loner tab

Loner
Always and Never
Goodnight Nurse

Alright guys, the other version of this is completely wrong.  I'm not sure what was 
up with that.  So, here you go, this is the whole song, much more accurate.  I put both 
parts into one with

pretty much no troubles.

Enjoy!

Duration Legend
---------------
W - whole
H - half
Q - quarter
E - 8th

Tablature Legend
----------------
L - tied note
x - dead note

NH - natural harmonic

p - pull off

Intro

     PM PM PM    PM PM    PM       PM    PM PM PM
     E  E  E  E  E  E  E  E     E  E  E  E  E  E  E  E
E||--------------------------|--------------------------|
B||--------------------------|--------------------------|
G||--------------------------|--------------------2--2--|
D||--------------------------|--------------------0--0--|
A||--0--0--0-----0--0-----0--|-----0-----0--0--0--0--0--|
D||--0--0--0-----0--0-----0--|-----0-----0--0--0--0--0--|


  E  E  E  E  E  E  E  E     E  E  E  E  E  E  E  E
--------------------------|--------------------------|
--------------------------|-----------3--3--3--3--3--|
--2--2--2-----2--2-----2--|-----2-----2--2--2--2--2--|
--0--0--0-----0--0-----0--|-----0-----0--0--0--0--0--|
--0--0--0-----0--0-----0--|-----0-----0--0--0--0--0--|
--0--0--0-----0--0-----0--|-----0-----0--0--0--0--0--|


  E  E   E  E   E  E  E  E     E  E   E  E   E  E  E  E
----------------------------|----------------------------|
----------------------------|----------------------------|
----------------------------|----------------------------|
-----7p--0--5p--0--9--9--9--|-----5p--0--4p--0--7--7--7--|
-------------------9--9--9--|-------------------7--7--7--|
-------------------9--9--9--|-------------------7--7--7--|


  E  E  E  E  E  E  E  E     E  E  E  E  E  E  E  E
--------------------------|--------------------------|
--------------------------|--------------------------|
--------------------------|--------------------------|
--7--5--5--5--5--7--7--7--|--7--7--7--7--7--5--0--0--|
--7--5--5--5--5--7--7--7--|--7--7--7--7--7--5--0--0--|
--7--5--5--5--5--7--7--7--|--7--7--7--7--7--5--0--0--|


  E  E   E  E   E  E  E  E     E  E   E  E   E  E  E  E
----------------------------|----------------------------|
----------------------------|----------------------------|
----------------------------|----------------------------|
-----7p--0--5p--0--9--9--9--|-----5p--0--4p--0--7--7--7--|
-------------------9--9--9--|-------------------7--7--7--|
-------------------9--9--9--|-------------------7--7--7--|


                                                 NH
  E  E  E  E  E  E  E  E     E  E  E  E  E  E    Q
--------------------------|---------------------------|
--------------------------|--------------------<>7----|
--------------------------|---------------------------|
--7--5--5--4--4--0--0--0--|--0--0--0--0--0------------|
--7--5--5--4--4--0--0--0--|--0--0--0--0--0------------|
--7--5--5--4--4--0--0--0--|--0--0--0--0--0------------|


    NH     NH     NH     NH        NH     NH
    Q      Q      Q      Q         Q      Q
------------------------------|----------------|
-----------------------<>7----|----------------|
--<>7-----------<>5-----------|--<>7-----------|
---------<>7------------------|---------<>7----|
------------------------------|----------------|
------------------------------|----------------|

Verse


    PM PM
    E  E  E  E  H           W
|------------------------|-------------------|
|------------------------|-------------------|
|*-----------------------|-------------------|
|*--------0--------------|-------------------|
|---0--0--0--------------|-------------------|
|---0--0--0--------------|-------------------|


  PM PM       PM                PM
  E  E  E  E  E  E  E  E     E  E  E  E  H
--------------------------|-----------------------|
--------------------------|-----------------------|
--------------------------|-----------------------|
--------7--7-----5--x--5--|--4-----0--------------|
--0--0--7--7--0--5--x--5--|--4--0--0--------------|
--0--0--7--7--0--5--x--5--|--4--0--0--------------|


  PM PM                   PM PM
  E  E  E  E  H           E  E  E  E  H
-----------------------|-----------------------|
-----------------------|-----------------------|
-----------------------|-----------------------|
--------9--------------|--------7--------------|
--0--0--9--------------|--0--0--7--------------|
--0--0--9--------------|--0--0--7--------------|


  PM PM       PM                PM
  E  E  E  E  E  E  E  E     E  E  E  E  E  E  E  E
--------------------------|--------------------------|
--------------------------|--------------8--8--7--7--|
--------------------------|--------------7--7--7--7--|
--------7--7-----5--x--5--|--4-----0-----------------|
--0--0--7--7--0--5--x--5--|--4--0--0-----------------|
--0--0--7--7--0--5--x--5--|--4--0--0-----------------|


  PM PM                      PM PM
  E  E  E  E  E  E  E  E     E  E  E  E  E  E  E  E
--------------------------|--------------------------|
--------------8--8--7--7--|--------------7--7--8--8--|
--------------7--7--7--7--|--------------7--7--7--7--|
--------7-----------------|--------9-----------------|
--0--0--7-----------------|--0--0--9-----------------|
--0--0--7-----------------|--0--0--9-----------------|


  PM PM       PM                PM
  E  E  E  E  E  E  E  E     E  E  E  E  E  E  E  E
--------------------------|--------------------------|
--------------------------|--------------8--8--7--7--|
--------------------------|--------------7--7--7--7--|
--------7--7-----5--x--5--|--4-----0-----------------|
--0--0--7--7--0--5--x--5--|--4--0--0-----------------|
--0--0--7--7--0--5--x--5--|--4--0--0-----------------|


  PM PM                      PM PM
  E  E  E  E  E  E  E  E     E  E  E  E  E  E  E  E
--------------------------|--------------------------|
--------------8--8--7--7--|--------------7--7--8--8--|
--------------7--7--7--7--|--------------7--7--7--7--|
--------7-----------------|--------9-----------------|
--0--0--7-----------------|--0--0--9-----------------|
--0--0--7-----------------|--0--0--9-----------------|


                           Chorus
  PM PM       PM                           NH   NH   NH   NH
  E  E  E  E  E  E  E  E     E  E  E  E    E    E    E    E
--------------------------|----------------------------------|
--------------------------|--------------<>7--<>7------------|
--------------------------|------------------------<>7--<>7--|
--------7--7-----5--x--0--|--0--0--0-------------------------|
--0--0--7--7--0--5--x--0--|--0--0--0-------------------------|
--0--0--7--7--0--5--x--0--|--0--0--0-------------------------|


  PM PM         NH   NH   NH   NH
  E  E  E  E    E    E    E    E     E  E  E  E  E  E  Q
----------------------------------|-------------------------|
--------------<>7--<>7------------|-------------------------|
------------------------<>7--<>7--|-------------------------|
--------7-------------------------|--0--0--0--0--0--x--0----|
--0--0--7-------------------------|--0--0--0--0--0--x--0----|
--0--0--7-------------------------|--0--0--0--0--0--x--0----|


   E   E   E   E  E  E  E  E     E  E  Q     E   E   E   E
------------------------------|-----------------------------|
------------------------------|-----------------------------|
--11--11--11--11--6--6--6--6--|--7-----7----12--12--12--12--|
---x---x---x---x--x--x--x--x--|--x--x--x-----x---x---x---x--|
---9---9---9---9--4--4--4--4--|--5--x--5----10--10--10--10--|
---9---9---9---9--4--4--4--4--|--5--x--5-----0---0---0---0--|


  E  E  E  E  E  E  Q        E   E   E   E  E  E  E  E
-------------------------|------------------------------|
-------------------------|------------------------------|
--6--6--6--6--7-----7----|--11--11--11--11--6--6--6--6--|
--x--x--x--x--x--x--x----|---x---x---x---x--x--x--x--x--|
--4--4--4--4--5--x--5----|---9---9---9---9--4--4--4--4--|
--4--4--4--4--5--x--5----|---9---9---9---9--4--4--4--4--|


                                PM PM PM PM          PM
  E  E  Q     E   E   E   E     E  E  E  E  E  E  E  E
-----------------------------|--------------------------|
-----------------------------|--------------------------|
--7-----7----12--12--12--12--|--------------------------|
--x--x--x-----x---x---x---x--|--------------0--x--0--7--|
--5--x--5----10--10--10--10--|--0--0--0--0--0--x--0--5--|
--5--x--5-----0---0---0---0--|--0--0--0--0--0--x--0--0--|


1st Ending------}{2nd Ending---------------]Bridge
  PM PM PM PM      PM PM PM             PM    PM PM PM PM PM PM PM
  E  E  E  E       E  E  E  E  E  E  E  E     E  E  E  E  E  E  E  E
---------------||--------------------------|--------------------------|
---------------||--------------------------|--------------------------|
--------------*||-----------7--x--7--------|--------------------------|
--7--7--7-----*||--7--7--7--0--x--0-----7--|--7--7--7--7--7--7--7--x--|
--5--5--5--5---||--5--5--5--0--x--0-----5--|--5--5--5--5--5--5--5--x--|
--0--0--0--5---||--0--0--0--0--x--0-----0--|--0--0--0--0--0--0--0--x--|


  W                                       W
-------------------|-------------------|-------------------|
--3----------------|--L----------------|--L----------------|
--2----------------|--L----------------|--L----------------|
--0----------------|--L----------------|--L----------------|
--0----------------|--L----------------|--L----------------|
--0----------------|--L----------------|--L----------------|


  W                   W                   W
-------------------|-------------------|-------------------|
--L----------------|--L----------------|--L----------------|
--L----------------|--L----------------|--L----------------|
--L----------------|--L----------------|--L----------------|
--L----------------|--L----------------|--L----------------|
--L----------------|--L----------------|--L----------------|


                                          Pick Slide ///////
  W                   W                   W
-------------------|-------------------|---------------------|
--L----------------|--L----------------|---------------------|
--L----------------|--L----------------|---------------------|
--L----------------|--L----------------|---------------------|
--L----------------|--L----------------|---------------------|
--L----------------|--L----------------|---------------------|


     PM  PM  PM  PM  PM  PM  PM  PM
     E   E   E   E   E   E   E   E
|-----------------------------------|
|-----------------------------------|
|*--14--14----------14--14----------|
|*----------12--12----------12--12--|
|-----------------------------------|
|-----------------------------------|


   PM  PM  PM  PM  PM  PM  PM  PM
   E   E   E   E   E   E   E   E   4x  E  E  E  E  E  Q.
-----------------------------------||------------------------|
-----------------------------------||------------------------|
--12--12----------12--12----------*||------------------------|
----------12--12----------12--12--*||--0--0--0--0--x--0------|
-----------------------------------||--0--0--0--0--x--0------|
-----------------------------------||--0--0--0--0--x--0------|


  W                   W                   E  E  E  E  E  E  Q
-------------------|-------------------|-------------------------|
-------------------|-------------------|-------------------------|
-------------------|-------------------|-------------------------|
--L----------------|--L----------------|--0--0--0--0--0--x--0----|
--L----------------|--L----------------|--0--0--0--0--0--x--0----|
--L----------------|--L----------------|--0--0--0--0--0--x--0----|


Final Chorus, Out

   E   E   E   E  E  E  E  E     E  E  Q     E   E   E   E
------------------------------|-----------------------------|
------------------------------|-----------------------------|
--11--11--11--11--6--6--6--6--|--7-----7----12--12--12--12--|
---x---x---x---x--x--x--x--x--|--x--x--x-----x---x---x---x--|
---9---9---9---9--4--4--4--4--|--5--x--5----10--10--10--10--|
---9---9---9---9--4--4--4--4--|--5--x--5-----0---0---0---0--|


  E  E  E  E  E  E  Q        E   E   E   E  E  E  E  E
-------------------------|------------------------------|
-------------------------|------------------------------|
--6--6--6--6--7-----7----|--11--11--11--11--6--6--6--6--|
--x--x--x--x--x--x--x----|---x---x---x---x--x--x--x--x--|
--4--4--4--4--5--x--5----|---9---9---9---9--4--4--4--4--|
--4--4--4--4--5--x--5----|---9---9---9---9--4--4--4--4--|


  E  E  Q     E   E   E   E     E  E  E  E  E  E  Q
-----------------------------|-------------------------|
-----------------------------|-------------------------|
--7-----7----12--12--12--12--|--6--6--6--6--7-----7----|
--x--x--x-----x---x---x---x--|--x--x--x--x--x--x--x----|
--5--x--5----10--10--10--10--|--4--4--4--4--5--x--5----|
--5--x--5-----0---0---0---0--|--4--4--4--4--5--x--5----|


[This repeats
over the rest of
the song--------]
    NH     NH
    Q      Q        E   E   E   E  E  E  E  E
----------------|------------------------------|
--<>7-----------|------------------------------|
---------<>7----|--11--11--11--11--6--6--6--6--|
----------------|---x---x---x---x--x--x--x--x--|
----------------|---9---9---9---9--4--4--4--4--|
----------------|---9---9---9---9--4--4--4--4--|


  E  E  Q     E   E   E   E     E  E  E  E  E  E  Q
-----------------------------|-------------------------|
-----------------------------|-------------------------|
--7-----7----12--12--12--12--|--6--6--6--6--7-----7----|
--x--x--x-----x---x---x---x--|--x--x--x--x--x--x--x----|
--5--x--5----10--10--10--10--|--4--4--4--4--5--x--5----|
--5--x--5-----0---0---0---0--|--4--4--4--4--5--x--5----|


   E   E   E   E  E  E  E  E     E  E  Q     E   E   E   E
------------------------------|-----------------------------|
------------------------------|-----------------------------|
--11--11--11--11--6--6--6--6--|--7-----7----12--12--12--12--|
---x---x---x---x--x--x--x--x--|--x--x--x-----x---x---x---x--|
---9---9---9---9--4--4--4--4--|--5--x--5----10--10--10--10--|
---9---9---9---9--4--4--4--4--|--5--x--5-----0---0---0---0--|


                            PM PM PM PM
  E  E  E  E  E  E  Q       E  E  E  E  E  E  E  E
-------------------------|--------------------------||
-------------------------|--------------------------||
--6--6--6--6--7-----7----|--------------2-----2-----||
--x--x--x--x--x--x--x----|--------------0--x--0-----||
--4--4--4--4--5--x--5----|--0--0--0--0--0--x--0-----||
--4--4--4--4--5--x--5----|--0--0--0--0--0--x--0-----||
Tap to rate this tab
 
# A B C D E F G H I J K L M N O P Q R S T U V W X Y Z