Bruce Cockburn - Hey Its Franklin tab

Hey Itís Franklin (Theame from the show Franklin)

 (words and music composed by Bruce Cockburn)

e|---------------------|
B|---------------------|
G|---------------------| intro
D|---0---0---0---0-----|
A|---------------------|
D|-0---0---0---0-------|
     D           D            D           A7      G
e|--------------2ó2-2-2-3--2---2-----|
B|----------------------------3------|
G|-----------------------------------|  x4
D|---0-0-----0-0-----0-0-----0-0-----|
A|----0-------0-------0-------0------|
D|-0------0-------0------0-----------|
Hey, It's Franklin
Comin' over to play
Growin' a little
Everyday!!!!!!!!!!!!!!!!

       A7
e|----------------------|
B|----------------------|
G|----------------------| x6
D|---2---2---2---2------|
A|----------------------|
D|-2---2---2---2--------|
Here he comes
With all his friends
They've got stories
Got time to spend with you!!!!!!!!!!

D           D            D           A7      G
e|--------------2ó2-2-2-3--2---2-----|
B|----------------------------3------|
G|-----------------------------------|  x4
D|---0-0-----0-0-----0-0-----0-0-----|
A|----0-------0-------0-------0------|
D|-0------0-------0------0-----------|
Hey, It's Franklin
Comin' to your house
Hey, It's Franklin
Comin' to my house

Hey, It's Franklin!!!!!!!!!!!!

Little bears theame song sucks compared to this.



 Tabbed by Riley Robbert Hardt of the D-tours
Tap to rate this tab
 
# A B C D E F G H I J K L M N O P Q R S T U V W X Y Z