Song name
# A B C D E F G H I J K L M N O P Q R S T U V W X Y Z

Bruce Cockburn - All The Diamonds tab

Guitar (Capo 5)



     C                                                 
     Q    Q    E  E  E  E     E  E  E  E  E  E  E  E   
E||-------0----------------|-----0--------------0-----|
B||---------------1--------|-----------1-----------1--|
G||--0------------------0--|-----------------0--------|
D||-------2----------2-----|--------2-----------2-----|
A||--3---------3-----------|--3-----------3-----------|
E||------------------------|--------------------------|


                                                        C                      
  E  E  E  E  E  E  E  E     E  E  E  E  E  E  E  E     Q    Q    E  E  E  E   
-----------------0--------|-----------0--------------|--0---------------------|
--------------------------|--1--------------1--------|-------1-------1--------|
--------0--L-----------0--|-----0-----------------0--|---------------------0--|
--------3-----------3-----|--------3-----------3-----|-------2----------2-----|
--3--L--------3-----------|--3-----------3-----------|--3---------3-----------|
--------------------------|--------------------------|------------------------|


  E  E  E  E  E  E  E  E     E  E  E  E  E  E  E  E   
-----0--------------0-----|-----------------0--------|
-----------1-----------1--|--------------------------|
-----------------0--------|--------0--L-----------0--|
--------2-----------2-----|--------3-----------3-----|
--3-----------3-----------|--3--L--------3-----------|
--------------------------|--------------------------|


                               C                      
  E  E  E  E  E  E  E  E       Q    Q    E  E  E  E   
-----------0--------------||-------------------------|
--1--------------1--------||---1----L-------1--------|
-----0-----------------0--||*---------------------0--|
--------3-----------3-----||*-------2----------2-----|
--3-----------3-----------||---3---------3-----------|
--------------------------||-------------------------|


                                Am       G            
  E  E  E  E  E  E  E  E     E  E  E  E  E  E  E  E   
--------------------------|--------------------------|
-----------1-----------1--|--1--L--------0--L--------|
-----0-----------0--------|--2--L--2-----------0-----|
--------2-----------2-----|--2--L--2-----------0-----|
--3-----------3-----------|--0--L--0-----2--L--------|
--------------------------|--------------3--L--------|


  E  E  E  E  E  E  E  E     E  E  E  E  E  E  E  E   
--------------------------|--------------------------|
--1--------1-----------1--|-----------1-----------1--|
-----0-----------0--------|-----2-----------2--------|
--------2-----------2-----|--------3-----------3-----|
--3-----------3-----------|--------------------------|
--------------------------|--1-----------1-----------|


  E  E  E  E  E  E  E  E     E  E  E  E  E  E  E  E   
--0-----------------------|--0-----------------------|
-----1-----------1--------|-----1-----------1--------|
-----------2-----------2--|-----------2-----------2--|
--------3-----------3-----|--------3-----------3-----|
--------------------------|--------------------------|
--1-----------1-----------|--1-----------1-----------|


                             Am                        
  E  E  E  E  E  E  E  E     E  E  E  E  E   E  E  E   
--------------------------|---------------------------|
--1--------1--------------|--1--L--------0h--1-----L--|
-----0-----------0-----0--|-----------2------------2--|
--------3-----------3-----|--------2------------2-----|
--------------------------|--0-----------0------------|
--1-----------1-----------|---------------------------|


                              F  Am       G            
  E  E  E  E  E   E  E  E     E  E  E  E  E  E  E  E   
---------------------------|--1-----------0-----------|
--3--L--------1h--3-----0--|--1--L--------0--L--------|
-----------0---------------|--2--L--2-----------0-----|
--------0------------0-----|--3--L--3-----------0-----|
---------------------------|--0--L--0-----2--L--------|
--3-----------3------------|--------------3--L--------|


  D                                                   
  E  E  E  E  E  E  E  E     E  E  E  E  E  E  E  E   
--2-----------------------|--0-----------------------|
--3--L-----3-----------3--|--1--L-----------1--------|
--2--L-----------2--------|--0--L-----0-----------0--|
--------0-----------0-----|--------2-----------2-----|
--------------------------|--------------------------|
--2-----------2-----------|--3-----------3-----------|


  E  E  E  E  E  E  E  E     E  E  E  E  E  E  E  E   
--------------------------|--------------------------|
-----1-----------1--------|--3--L-----------3--------|
-----------0-----------0--|-----------0-----------0--|
--------2-----------2-----|--------0-----------0-----|
--------------------------|--------------------------|
--3-----------3-----------|--3-----------3-----------|


  E  E  E  E  E   E  E  E     E  E  E  E  E   E  E  E   
------------------------0--|---------------------------|
--3--L--------3p--1--3-----|--1--L--------1p--0--1--3--|
-----------0---------------|-----------0---------------|
--------0------------0-----|--------2------------2-----|
---------------------------|--0-----------0------------|
--3-----------3------------|---------------------------|


  E  E  E  E  E  E  E   E     E  E  E  E  E  E  E  E   
---------------------------|--------------------------|
--0--L--------0-----0h--1--|-----------------0-----L--|
-----------0-----2---------|--2--L-----2-----0-----L--|
--------0-----------0------|--------2-----------2-----|
---------------------------|--0-----------0-----------|
--3-----------3------------|--------------------------|


                                Dm                       
  E  E  E  E  E  E  E  E        E  E  E  E  E  E  E  E   
---------------------------||---1--L-----------0--------|
--1--------------1--0--L---||------------3-----------3--|
--2--L-----2--------------*||*--------2-----------2-----|
--------2-----------------*||*--0-----------0-----------|
--0-----------0-----2------||---------------------------|
---------------------------||---------------------------|


  E  E  E  E  E  E  E  E     E  E  E  E  E  E  E  E   
--1--L-----------0--------|--1--L-----------0--------|
-----------3-----------3--|-----------0-----------0--|
--------2-----------2-----|--------2-----------2-----|
--0-----------0-----------|--------------------------|
--------------------------|--------------------------|
--------------------------|--3-----------3-----------|


                             Am                       
  E  E  E  E  E  E  E  E     E  E  E  E  E  E  E  E   
--1--L-----------0--------|--0--L--------------------|
-----------0-----------0--|-----------------1--------|
--------2-----------2-----|-----------2-----------2--|
--------------------------|--------2-----------2-----|
--------------------------|--0-----------0-----------|
--3-----------3-----------|--------------------------|


  Am                         Am                       
  E  E  E  E  E  E  E  E     E  E  E  E  E  E  E  E   
--0--L--------------------|--3--L--------------------|
-----------------1--------|-----------------1--------|
-----------2-----------2--|-----------2-----------2--|
--------2-----------2-----|--------2-----------2-----|
--0-----------0-----------|--0-----------0-----------|
--------------------------|--------------------------|


  Am                           Am                        
  E  E  E  E  E  E  E  E       E  E  E  E  E   E  E  E   
--3--------3---------------||---------------------0-----|
-----1-----------1---------||--1--L--------1h--3-----1--|
-----------------------2--*||-----------2---------------|
--------2-----------2-----*||--------2------------2-----|
--0-----------0------------||--0-----------0------------|
---------------------------||---------------------------|


  Am                                                   
  E  E  E  E  E   E  E  E     E  E  E  E  E  E  E  E   
---------------------------|--------------------------|
-----0--------0h-----------|-----0--------0--------0--|
--------------0---L-----0--|-----------0-----0--------|
--------2--L---------0-----|--------0-----------0-----|
--0------------------------|--------------------------|
--------------3------------|--3-----------3-----------|


                            C                                                 
  E  E  E  E  E  E  Q       Q    Q    E  E  E  E     E  E  E  E  E  E  E  E   
-------------------------|------------------------|--------------------------|
-----0--------0--L-------|--1----L-------1--------|-----------1-----------1--|
-----------0--0--L-------|---------------------0--|-----0-----------0--------|
--------0----------------|-------2----------2-----|--------2-----------2-----|
-------------------------|--3---------3-----------|--3-----------3-----------|
--3-----------3----------|------------------------|--------------------------|


     Am       G                                       
  E  E  E  E  E  E  E  E     E  E  E  E  E  E  E  E   
--------------------------|--------------------------|
--1--L--------0--L--------|--1--------1-----------1--|
--2--L--2-----------0-----|-----0-----------0--------|
--2--L--2-----------0-----|--------2-----------2-----|
--0--L--0-----2--L--------|--3-----------3-----------|
--------------3--L--------|--------------------------|


  E  E  E  E  E  E  E  E     E  E  E  E  E  E  E  E   
--------------------------|--0-----------------------|
-----------1-----------1--|-----1-----------1--------|
-----2-----------2--------|-----------2-----------2--|
--------3-----------3-----|--------3-----------3-----|
--------------------------|--------------------------|
--1-----------1-----------|--1-----------1-----------|


  E  E  E  E  E  E  E  E     E  E  E  E  E  E  E  E   
--0-----------------------|--------------------------|
-----1-----------1--------|--1--------1--------------|
-----------2-----------2--|-----0-----------0-----0--|
--------3-----------3-----|--------3-----------3-----|
--------------------------|--------------------------|
--1-----------1-----------|--1-----------1-----------|


    Am                                                    
    E  E  E  E  E   E  E  E     E  E  E  E  E   E  E  E   
|----------------------------|---------------------------|
|---1--L--------0h--1-----L--|--3--L--------1h--3-----0--|
|*-----------2------------2--|-----------0---------------|
|*--------2------------2-----|--------0------------0-----|
|---0-----------0------------|---------------------------|
|----------------------------|--3-----------3------------|


  F  Am       G              D                        
  E  E  E  E  E  E  E  E     E  E  E  E  E  E  E  E   
--1-----------0-----------|--2-----------------------|
--1--L--------0--L--------|--3--L-----3-----------3--|
--2--L--2-----------0-----|--2--L-----------2--------|
--3--L--3-----------0-----|--------0-----------0-----|
--0--L--0-----2--L--------|--------------------------|
--------------3--L--------|--2-----------2-----------|


  E  E  E  E  E  E  E  E     E  E  E  E  E  E  E  E   
--0-----------------------|--------------------------|
--1--L-----------1--------|-----1-----------1--------|
--0--L-----0-----------0--|-----------0-----------0--|
--------2-----------2-----|--------2-----------2-----|
--------------------------|--------------------------|
--3-----------3-----------|--3-----------3-----------|


  E  E  E  E  E  E  E  E     E  E  E  E  E  E  E  E     
--------------------------|---------------------------||
--3--L-----------3--------|--3--L-----------3---------||
-----------0-----------0--|-----------0-----------0--*||
--------0-----------0-----|--------0-----------0-----*||
--------------------------|---------------------------||
--3-----------3-----------|--3-----------3------------||


  E  E  E  E  E   E  E  E     E  E  E  E  E   E  E  E   
------------------------0--|---------------------------|
--3--L--------3p--1--3-----|--1--L--------1p--0--1--3--|
-----------0---------------|-----------0---------------|
--------0------------0-----|--------2------------2-----|
---------------------------|--0-----------0------------|
--3-----------3------------|---------------------------|


  E  E  E  E  E  E  E   E     E  E  E  E  E  E  E  E     H        H          
---------------------------|--------------------------|--5-----------------||
--0--L--------0-----0h--1--|-----------------1--------|--1--------L--------||
-----------0-----2---------|--2--L-----2-----------2--|--2-----------------||
--------0-----------0------|--------2-----------2-----|--------------------||
---------------------------|--0-----------0-----------|--0-----------------||
--3-----------3------------|--------------------------|--------------------||



Tap to rate this tab
# A B C D E F G H I J K L M N O P Q R S T U V W X Y Z