Song name
# A B C D E F G H I J K L M N O P Q R S T U V W X Y Z

Bruce Cockburn - One Day I Walk tab

Help us improve GuitareTab! Take a short survey!
-----------------------------------------------------------------------------
                    ONE DAY I WALK - Bruce Cockburn
-----------------------------------------------------------------------------
Tabbed by: Jake Redekopp
Email: jascha00 gmail.com

This is the live version from Circles In The Stream - the studio version
might be slightly different.

Intro:
                 |---3--|     |---3--|                                    
      Q    E  E  E   E  E     E   E  E  E  E  E  E      Q.     E   E  E   
E||------------------------|------------7-----9-----|--10------9s--7--5--|
B||--------2---------------|---------5--------------|--------------------|
G||*-------2------------2--|--4s--6-----7-----9-----|--11------9s--7-----|
D||*-------2-----2h--4-----|---------------------0--|----------0---------|
A||---0-------0------------|---------------0--------|--------------------|
E||------------------------|------------------------|--------------------|
 
 
                                  |--3--|             |---3--|  |---3--|   
  Q.     E  Q      3x   Q    Q    S  S  S E     E  E  E   E  E  E   E  E   
--2------5--2\------||--3----3----0h-2p-0----|----------------------------|
--3---------3\------||--3----3------------3--|-----3-------------------3--|
------------------*-||--0----0---------------|---------------4--2h--4-----|
--0---------0-----*-||--0----0---------------|--------2h--4---------------|
--------------------||-----------------------|--2-------------------------|
--------------------||--3--------------------|----------------------------|
 
 
             |---3--|                    
  Q    E  E  E   E  E     H.             
-------0---------------|---------------||
-----------------------|--5------------||
--2----------4p--2-----|--6------------||
----------2---------2--|---------------||
-----------------------|---------------||
-----------------------|---------------||
 

Verse 1:
   A      G      D           Bm          A
Oh I have been a beggar, and will be one again
            G          D                Bm              A
and few are those with help to lend within the world of men

Chorus:
    A             D   A
One day I walk in flowers
    E              
One day I walk on stones
  D   E         A
Today I walk in hours
    E     G        A
One day I shall be home

Then play the intro, ignoring the repeats.

Verse 2:
I have sat on the street corner
and watched the bootheels shine
and cried out glad and cried out sad
with every voice but mine. 

Chorus, singing the last line twice

Outro: Play the intro, ignoring the repeats


Related for One Day I Walk tab