Song name
# A B C D E F G H I J K L M N O P Q R S T U V W X Y Z

Bruce Dickinson - Gods Not Coming Back tab

-------------------------------------------------------------------------------
		GOD'S NOT COMING BACK - Bruce Dickinson
-------------------------------------------------------------------------------
Tabbed by: Hannes
Email: chromex-@hotmail.com

This is my first tab, so I don't know exactly how accurate it is. I was just messing 
and it only took me about 2 minutes.


Tuning: EADGBe


This is the main riff. It's played during most of the song.

e|----0--0--0---3----5------|
B|----0--0--0---3----5------|
G|----1--1--1---4----6------|
D|----2--2--2---5----7------|
A|----2--2--2---5----7------|
E|----0--0--0---3----5------|


Then the chorus. Let all chords ring, except the last one.


         It's magic they say      back from the dead
e|----3-------5----------3--------5-------------3--------------|
B|----3-------5----------3--------5-------------3--------------|
G|----4-------6----------4--------6-------------4--------------|
D|----5-------7----------5--------7-------------5--------------|
A|----5-------7----------5--------7-------------5--------------|
E|----3-------5----------3--------5-------------3--------------|


     It's not christmas yet       God's not coming back
e|--------5-------------3--------------------------------------|
B|--------5-------------3--------------------------------------|
G|--------6-------------4--------------------------------------|
D|--------7-------------5--------------------------------------|
A|--------7-------------5--------------------------------------|
E|--------5-------------3--------------------------------------|


Then back to the main riff for the rest of the chorus.
Tap to rate this tab
# A B C D E F G H I J K L M N O P Q R S T U V W X Y Z