Song name
# A B C D E F G H I J K L M N O P Q R S T U V W X Y Z

Bruce Dickinson - Tears Of The Dragon tab

   

Bruce Dickinson 
Tears of the Dragon (ver. 2) 
  


 
   Intro 
   Guitar 1                                                 Repete 5 vez 
D#|----------------------------------|----------------------------------| 
A#|------1-----0-----1-----0-----0h1-|------1-----0-1---3-----1-----0h1-| 
F#|--------2-----2-----2-----2-------|--------0-----------0-----0-------| 
C#|----2-----2-----2-----2-----2-----|----2-----2-----------2-----2-----| 
G#|--0-------------------------------|--3-------------3-----------------| 
D#|----------------------------------|----------------------------------| 
 
Base 
 Guitar 1 
|---------0---------------0-------|----------0---------------0-------| 
|-------1---1-----------1---1-----|--------0---0-----------0---0-----| 
|-----2-------2-------2-------2---|------0-------0-------0-------0---| 
|---2-----------2---2-----------2-|----2-----------2---2-----------2-| 
|-0---------------0---------------|----------------------------------| 
|---------------------------------|--0---------------0---------------| 
| Guitar 2 
|-------------------------------|-------------------------------| 
|---1-----1---1---1-----1---1---|---0-----0---0---0-----0---0---| 
|---2-----2---2---2-----2---2---|---0-----0---0---0-----0---0---| 
|---2-----2---2---2-----2---2---|---2-----2---2---2-----2---2---| 
|---0-----0---0---0-----0---0---|---2-----2---2---2-----2---2---| 
|-------------------------------|---0-----0---0---0-----0---0---| 
 
 Guitar 1 
|---------3---------------2-------|-------------------| 
|-------0---0-----------3---3-----|-(1)3--1--0-1-0----| 
|-----0-------0-------2-------2---|----------------2--| 
|---0---------------0-----------0-|-------------------| 
|---------------2-----------------|-------------------| 
|-3---------------2---------------|-------------------| 
| Guitar 2 
|-----------------2-----2---2---|-------------------| 
|---3-----3---3---3-----3---3---|-(1)3--1--0-1-0----| 
|---0-----0---0---2-----2---2---|----------------2--| 
|---0-----0---0---0-----0---0---|-------------------| 
|---2-----2---2-----------------|-------------------| 
|---3-----3---3-----------------|-------------------| 
 
 Guitar 1 
|----------0---------------0-------|----------0---------------3-------| 
|--------1---1-----------0---0-----|--------0---0-----------0---0-----| 
|------2-------2-------0-------0---|------0-------0-------0-------0---| 
|----2-----------2---2-----------2-|----2-----------2---0-------------| 
|--0-------------------------------|--------------------------------2-| 
|------------------0---------------|--0---------------3---------------| 
| Guitar 2 
|-------------------------------|-------------------------------| 
|---1-----1---1---0-----0---0---|---0-----0---0---3-----3---3---| 
|---2-----2---2---0-----0---0---|---0-----0---0---0-----0---0---| 
|---2-----2---2---2-----2---2---|---2-----2---2---0-----0---0---| 
|---0-----0---0---2-----2---2---|---2-----2---2---2-----2---2---| 
|-----------------0-----0---0---|---0-----0---0---3-----3---3---| 
 
 Guitar 1 
|----------3---------------2-------|--3-----3-2-------| 
|--------0---0-----------3---3-----|----3-------3---3-| 
|------0-------0-------2-------2---|------2-------2---| 
|----0---------------0-----------0-|------------------| 
|----------------2-----------------|------------------| 
|--3---------------2---------------|------------------| 
| Guitar 2 
|-----------------2-----2---2---|---2-----2---2--2--| 
|---3-----3---3---3-----3---3---|---3-----3---3--3--| 
|---0-----0---0---2-----2---2---|---2-----2---2--2--| 
|---0-----0---0---0-----0---0---|---0-----0---0--0--| 
|---2-----2---2-----------------|-------------------| 
|---3-----3---3-----------------|-------------------| 
 
Refrão 
 Guitar 1                                                     repete 2x 
|----------------------------------|--------------------------3-2-0---| 
|----------------------1-----1---1-|----------------------3---------3-| 
|------0-----0---0-----------------|------0-----0---0---2---2---------| 
|----2-----2---------2-----2-------|----0-----0-------0---------------| 
|------------------3-----3-----3---|----------------------------------| 
|--0-----0-----0-------------------|--3-----3-----3-------------------| 
| Guitar 3 
|----------------------------------|----------------------------------| 
|----------------------------------|----------------------------------| 
|------------------5---------------|------------------7---------------| 
|---2--------------5---------------|--5---------------7---------------| 
|---2--------------3---------------|--5---------------5---------------| 
|---0------------------------------|--3-------------------------------| 
 
 Guitar 1 
|----------------------------------|------------------------0-2-------| 
|----------------------1-----1---1-|----------------------3-----3-----| 
|------0-----0---0-----------------|------0-----0---0---2---------2---| 
|----2-----2---------2-----2-------|----0-----0-------0-------------0-| 
|------------------3-----3-----3---|----------------------------------| 
|--0-----0-----0-------------------|--3-----3-----3-------------------| 
| Guitar 3 
|----------------------------------|----------------------------------| 
|----------------------------------|----------------------------------| 
|------------------5---------------|------------------7---------------| 
|---2--------------5---------------|--5---------------7---------------| 
|---2--------------3---------------|--5---------------5---------------| 
|---0------------------------------|--3-------------------------------| 
 
 Guitar 1 
|--3-----3-2-------| 
|----3-------3---3-| 
|------2-------2---| 
|------------------| 
|------------------| 
|------------------| 
 
 Intro 
 Guitar 1                                                 Repete 3 vez 
|----------------------------------|----------------------------------| 
|------1-----0-----1-----0-----0h1-|------1-----0-1---3-----1-----0h1-| 
|--------2-----2-----2-----2-------|--------0-----------0-----0-------| 
|----2-----2-----2-----2-----2-----|----2-----2-----------2-----2-----| 
|--0-------------------------------|--3-------------3-----------------| 
|----------------------------------|----------------------------------| 
 
Base 
 Guitar 1 
|---------0---------------0-------|----------0---------------0-------| 
|-------1---1-----------1---1-----|--------0---0-----------0---0-----| 
|-----2-------2-------2-------2---|------0-------0-------0-------0---| 
|---2-----------2---2-----------2-|----2-----------2---2-----------2-| 
|-0---------------0---------------|----------------------------------| 
|---------------------------------|--0---------------0---------------| 
| Guitar 2 
|-------------------------------|-------------------------------| 
|---1-----1---1---1-----1---1---|---0-----0---0---0-----0---0---| 
|---2-----2---2---2-----2---2---|---0-----0---0---0-----0---0---| 
|---2-----2---2---2-----2---2---|---2-----2---2---2-----2---2---| 
|---0-----0---0---0-----0---0---|---2-----2---2---2-----2---2---| 
|-------------------------------|---0-----0---0---0-----0---0---| 
 
 Guitar 1 
|---------3---------------2-------|-------------------| 
|-------0---0-----------3---3-----|-(1)3--1--0-1-0----| 
|-----0-------0-------2-------2---|----------------2--| 
|---0---------------0-----------0-|-------------------| 
|---------------2-----------------|-------------------| 
|-3---------------2---------------|-------------------| 
| Guitar 2 
|-----------------2-----2---2---|-------------------| 
|---3-----3---3---3-----3---3---|-(1)3--1--0-1-0----| 
|---0-----0---0---2-----2---2---|----------------2--| 
|---0-----0---0---0-----0---0---|-------------------| 
|---2-----2---2-----------------|-------------------| 
|---3-----3---3-----------------|-------------------| 
 
 Guitar 1 
|----------0---------------0-------|----------0---------------3-------| 
|--------1---1-----------0---0-----|--------0---0-----------0---0-----| 
|------2-------2-------0-------0---|------0-------0-------0-------0---| 
|----2-----------2---2-----------2-|----2-----------2---0-------------| 
|--0-------------------------------|--------------------------------2-| 
|------------------0---------------|--0---------------3---------------| 
| Guitar 2 
|-------------------------------|-------------------------------| 
|---1-----1---1---0-----0---0---|---0-----0---0---3-----3---3---| 
|---2-----2---2---0-----0---0---|---0-----0---0---0-----0---0---| 
|---2-----2---2---2-----2---2---|---2-----2---2---0-----0---0---| 
|---0-----0---0---2-----2---2---|---2-----2---2---2-----2---2---| 
|-----------------0-----0---0---|---0-----0---0---3-----3---3---| 
 
 Guitar 1 
|----------3---------------2-------|--3-----3-2-------| 
|--------0---0-----------3---3-----|----3-------3---3-| 
|------0-------0-------2-------2---|------2-------2---| 
|----0---------------0-----------0-|------------------| 
|----------------2-----------------|------------------| 
|--3---------------2---------------|------------------| 
| Guitar 2 
|-----------------2-----2---2---|---2-----2---2--2--| 
|---3-----3---3---3-----3---3---|---3-----3---3--3--| 
|---0-----0---0---2-----2---2---|---2-----2---2--2--| 
|---0-----0---0---0-----0---0---|---0-----0---0--0--| 
|---2-----2---2-----------------|-------------------| 
|---3-----3---3-----------------|-------------------| 
 
Refrão 
 Guitar 1                                                     repete 2x 
|----------------------------------|--------------------------3-2-0---| 
|----------------------1-----1---1-|----------------------3---------3-| 
|------0-----0---0-----------------|------0-----0---0---2---2---------| 
|----2-----2---------2-----2-------|----0-----0-------0---------------| 
|------------------3-----3-----3---|----------------------------------| 
|--0-----0-----0-------------------|--3-----3-----3-------------------| 
| Guitar 3 
|----------------------------------|----------------------------------| 
|----------------------------------|----------------------------------| 
|------------------5---------------|------------------7---------------| 
|---2--------------5---------------|--5---------------7---------------| 
|---2--------------3---------------|--5---------------5---------------| 
|---0------------------------------|--3-------------------------------| 
 
 Guitar 1 
|----------------------------------|------------------------0-2-------| 
|----------------------1-----1---1-|----------------------3-----3-----| 
|------0-----0---0-----------------|------0-----0---0---2---------2---| 
|----2-----2---------2-----2-------|----0-----0-------0-------------0-| 
|------------------3-----3-----3---|----------------------------------| 
|--0-----0-----0-------------------|--3-----3-----3-------------------| 
| Guitar 3 
|----------------------------------|----------------------------------| 
|----------------------------------|----------------------------------| 
|------------------5---------------|------------------7---------------| 
|---2--------------5---------------|--5---------------7---------------| 
|---2--------------3---------------|--5---------------5---------------| 
|---0------------------------------|--3-------------------------------| 
 
 Guitar 1 
|--3-----3-2-------| 
|----3-------3---3-| 
|------2-------2---| 
|------------------| 
|------------------| 
|------------------| 
 
 Solo 1 
1 Guitar 4 
|----------------|-----------------|----------------------------|--------------| 
|----------------|-----------------|----------------------------|--------------| 
|----------------|-----------------|----------------------------|--------------| 
|-------2/7------|--10~-----10/-x--|------9------7~----7h9---9--|--9-----------| 
|-------------7--|-----------------|---7-----7------------------|-------7--7~--| 
|----------------|-----------------|----------------------------|--------------| 
| Base Guitar 3 
|--------------------------------|------------------|-----------|--------------| 
|--------------------------------|------------------|-----------|--------------| 
|--------------------------------|------------------|-----------|--------------| 
|--7-----------------------------|--5---------------|--3---5----|--7-----------| 
|--7-----------------------------|--5---------------|--3---5----|--7-----------| 
|--5-----------------------------|--3---------------|--1---3----|--5-----------| 
 
2 Guitar 4 
|------------------------------------|----------------------------------------| 
|----------8-10--8----8--------------|----------------------------------------| 
|------7-9---------10---10--9--10/-x-|-7br9--5---------5~--7br9--5---------5~-| 
|-7-10-------------------------------|---------7-5-7~--------------7-5-7~-----| 
|------------------------------------|----------------------------------------| 
|------------------------------------|----------------------------------------| 
| Base Guitar 3 
|-------------------------|-------------------------|-------------------------| 
|-------------------------|-------------------------|-------------------------| 
|-7-----------5-----------|-------------------------|-------------------------| 
|-7-----------5-------5---|-7-----------------------|-------------------------| 
|-5-----------3-------5---|-7-7-7-7-7-7-7-7-7-7-7-7-|-7-7-7-7-7-7-7-7-7-7-7-7-| 
|---------------------3---|-5-5-5-5-5-5-5-5-5-5-5-5-|-5-5-5-5-5-5-5-5-5-5-5-5-| 
 
3 Guitar 4 
|-----------------|-----------------|--------------------|--------------------|--------| 
|--5--6--8--6--5--|--6---5------5~--|--------------------|--------------------|--8b10~-| 
|-----------------|----------7------|-7br9--5---------5~-|-7br9--5---------5~-|--------| 
|-----------------|-----------------|---------7-5-7~-----|---------7-5-7~-----|--------| 
|-----------------|-----------------|--------------------|--------------------|--------| 
|-----------------|-----------------|--------------------|--------------------|--------| 
| Base Guitar 3 
|-------------------------|-------------------------| 
|-------------------------|-------------------------| 
|-------------------------|-------------------------| 
|-5-----------------------|-3-----------5-----------| 
|-5-5-5-5-5-5-5-5-5-5-5-5-|-3-3-3-3-3-3-5-5-5-5-5-5-| 
|-3-3-3-3-3-3-3-3-3-3-3-3-|-1-1-1-1-1-1-3-3-3-3-3-3-| 
 
|-------------------------|-------------------------|-------------------------| 
|-------------------------|-------------------------|-------------------------| 
|-------------------------|-------------------------|-7-----------------------| 
|-7-----------------------|-------------------------|-7-7-7-7-7-7-7-7-7-7-7-7-| 
|-7-7-7-7-7-7-7-7-7-7-7-7-|-7-7-7-7-7-7-7-7-7-7-7-7-|-5-5-5-5-5-5-5-5-5-5-5-5-| 
|-5-5-5-5-5-5-5-5-5-5-5-5-|-5-5-5-5-5-5-5-5-5-5-5-5-|-------------------------| 
 
4 Guitar 4 
|-------------------------------------|--------------------------------|-----------------| 
|-----5--8--5-----5--8--5-----5--8--5-|-----5--8--5--------------------|-----------------| 
|-7b9---------7b9---------7b9---------|-7b9---------7b9-5---5----------|--------------5~-| 
|-------------------------------------|-------------------7---7--5---5-|-----7---7--5----| 
|-------------------------------------|----------------------------7---|-7-5---5---------| 
|-------------------------------------|--------------------------------|-----------------| 
| Base Guitar 3 
|-------------------------|-------------------------|-------------------------| 
|-------------------------|-------------------------|-------------------------| 
|-5-----------------------|-------------------------|-------------------------| 
|-5-5-5-5-5-5-5-----------|-7-----7-----7-----7-----|-7-----7-----7-----7-----| 
|-3-3-3-3-3-3-5-5-5-5-5-5-|-7-7-7-7-7-7-7-7-7-7-7-7-|-7-7-7-7-7-7-7-7-7-7-7-7-| 
|-------------3-3-3-3-3-3-|-5-5-5-5-5-5-5-5-5-5-5-5-|-5-5-5-5-5-5-5-5-5-5-5-5-| 
 
5 Guitar 4 
|-------------------|------------------|-------------------|-----------| 
|-------------------|------------------|-------------------|-----8-----| 
|-------------------|------------------|-----5--------5--7-|-7b9---7b9-| 
|-------------------|----------5-----5-|-7b9---7b9--7------|-----------| 
|---------5---------|-5--7--8-----8----|-------------------|-----------| 
|-(3)5--8---8--7--8-|------------------|-------------------|-----------| 
| Base Guitar 3 
|-------------------------|-------------------------|-------------------------| 
|-------------------------|-------------------------|-------------------------| 
|-------------------------|-------------------------|-------------------------| 
|-5-----5-----5-----5-----|-3-----3-----5-----5-----|-7-----7-----7-----7-----| 
|-5-5-5-5-5-5-5-5-5-5-5-5-|-3-3-3-3-3-3-5-5-5-5-5-5-|-7-7-7-7-7-7-7-7-7-7-7-7-| 
|-3-3-3-3-3-3-3-3-3-3-3-3-|-1-1-1-1-1-1-3-3-3-3-3-3-|-5-5-5-5-5-5-5-5-5-5-5-5-| 
 
|-------------------------| 
|-------------------------| 
|-------------------------| 
|-7-----7-----7-----7-----| 
|-7-7-7-7-7-7-7-7-7-7-7-7-| 
|-5-5-5-5-5-5-5-5-5-5-5-5-| 
 
6 Guitar 4 
|------------5---------5---|-8--5---8--5------------|-----------|--------|-----|--------| 
|-8b10--8b10---5--8b10---5-|------8------8--10--10~-|-10-12-13~-|--12-10-|-12~-|--10-12-| 
|--------------------------|------------------------|-----------|--------|-----|--------| 
|--------------------------|------------------------|-----------|--------|-----|--------| 
|--------------------------|------------------------|-----------|--------|-----|--------| 
|--------------------------|------------------------|-----------|--------|-----|--------| 
| Base Guitar 3 
|-------------------------|-------------------------|-------------------------| 
|-------------------------|-------------------------|-------------------------| 
|-7-----7-----7-----7-----|-5-----5-----------------|-------------------------| 
|-7-7-7-7-7-7-7-7-7-7-7-7-|-5-5-5-5-5-5-5-----5-----|-7-----7-----7-----7-----| 
|-5-5-5-5-5-5-5-5-5-5-5-5-|-3-3-3-3-3-3-5-5-5-5-5-5-|-7-7-7-7-7-7-7-7-7-7-7-7-| 
|-------------------------|-------------3-3-3-3-3-3-|-5-5-5-5-5-5-5-5-5-5-5-5-| 
 
|-------------------------|-------------------------| 
|-------------------------|-------------------------| 
|-------------------------|-------------------------| 
|-7-----7-----7-----7-----|-5-----5-----5-----5-----| 
|-7-7-7-7-7-7-7-7-7-7-7-7-|-5-5-5-5-5-5-5-5-5-5-5-5-| 
|-5-5-5-5-5-5-5-5-5-5-5-5-|-3-3-3-3-3-3-3-3-3-3-3-3-| 
 
7 Guitar 4 
|------------------------|-------15-------15-------|-15-----------| 
|-13--12--13--15--13--15-|-15b17----15b17----15b17-|-----15b17~---| 
|------------------------|-------------------------|--------------| 
|------------------------|-------------------------|--------------| 
|------------------------|-------------------------|--------------| 
|------------------------|-------------------------|--------------| 
| Base Guitar 3 
|-------------------------|-------------------------|-------------------------| 
|-------------------------|-------------------------|-------------------------| 
|-------------------------|-------------------------|-------------------------| 
|-3-----3-----5-----5-----|-7-----7-----7-----7-----|-7-----7-----7-----7-----| 
|-3-3-3-3-3-3-5-5-5-5-5-5-|-7-7-7-7-7-7-7-7-7-7-7-7-|-7-7-7-7-7-7-7-7-7-7-7-7-| 
|-1-1-1-1-1-1-3-3-3-3-3-3-|-5-5-5-5-5-5-5-5-5-5-5-5-|-5-5-5-5-5-5-5-5-5-5-5-5-| 
 
8 Guitar 4 
|----------17------|-20-17-17-17-20-17-17-17-20-17-17-17-17-17-17~-|-20b22-20b22-20b22-20b22-| 
|-20b22~-20--20-17-|-----------------------------------------------|-------------------------| 
|------------------|-----------------------------------------------|-------------------------| 
|------------------|-----------------------------------------------|-------------------------| 
|------------------|-----------------------------------------------|-------------------------| 
|------------------|-----------------------------------------------|-------------------------| 
| Base Guitar 3 
|-------------------------|-------------------------|-------------------------| 
|-------------------------|-------------------------|-------------------------| 
|-7-----7-----7-----7-----|-5-----5-----------------|-------------------------| 
|-7-7-7-7-7-7-7-7-7-7-7-7-|-5-5-5-5-5-5-5-----5-----|-7-----7-----7-----7-----| 
|-5-5-5-5-5-5-5-5-5-5-5-5-|-3-3-3-3-3-3-5-5-5-5-5-5-|-7-7-7-7-7-7-7-7-7-7-7-7-| 
|-------------------------|-------------3-3-3-3-3-3-|-5-5-5-5-5-5-5-5-5-5-5-5-| 
 
9 Guitar 4 
|--20--19--17--19--17--15--|---17~-------5----|-----------------------------| 
|--------------------------|---------------8--|---5-------------------------| 
|--------------------------|--------7b9-------|-7---7--5---5----------------| 
|--------------------------|------------------|----------7---7---7--5--7--5-| 
|--------------------------|------------------|----------------5------------| 
|--------------------------|------------------|-----------------------------| 
| Base Guitar 3 
|-------------------------|-------------------------|-------------------------| 
|-------------------------|-------------------------|-------------------------| 
|-------------------------|-------------------------|-------------------------| 
|-7-----7-----7-----7-----|-5-----5-----5-----5-----|-3-----3-----5-----5-----| 
|-7-7-7-7-7-7-7-7-7-7-7-7-|-5-5-5-5-5-5-5-5-5-5-5-5-|-3-3-3-3-3-3-5-5-5-5-5-5-| 
|-5-5-5-5-5-5-5-5-5-5-5-5-|-3-3-3-3-3-3-3-3-3-3-3-3-|-1-1-1-1-1-1-3-3-3-3-3-3-| 
 
10 Guitar 4 
|----------------------------|-----------------|---5-7-8-7-8-10-8-10-| 
|----------------------------|-----------------|-5-------------------| 
|----------------------------|---7---7--5---7~-|---------------------| 
|-7------7-------------5---7-|-5---5------5----|---------------------| 
|---5--7---5------5--7---7---|-----------------|---------------------| 
|------------8--5------------|-----------------|---------------------| 
| Base Guitar 3 
|-------------------------|-------------------------|-------------------------| 
|-------------------------|-------------------------|-------------------------| 
|-------------------------|-------------------------|-7-----------------------| 
|-7-----------------------|-------------------------|-7-7-7-7-7-7-7-7-7-7-7-7-| 
|-7-7-7-7-7-7-7-7-7-7-7-7-|-7-7-7-7-7-7-7-7-7-7-7-7-|-5-5-5-5-5-5-5-5-5-5-5-5-| 
|-5-5-5-5-5-5-5-5-5-5-5-5-|-5-5-5-5-5-5-5-5-5-5-5-5-|-------------------------| 
 
11 Guitar 4 
|-10b12~-|----------------------12-------12-13-12~-|----------12-------12-13----12-13-15-13~-| 
|--------|-10-12-13-15-12-13-15----13-15-----------|-12-13-15----13-15-------15--------------| 
|--------|-----------------------------------------|-----------------------------------------| 
|--------|-----------------------------------------|-----------------------------------------| 
|--------|-----------------------------------------|-----------------------------------------| 
|--------|-----------------------------------------|-----------------------------------------| 
| Base Guitar 3 
|-------------------------|-------------------------|-------------------------| 
|-------------------------|-------------------------|-------------------------| 
|-5-----------------------|-------------------------|-------------------------| 
|-5-5-5-5-5-5-5-----------|-7-----7-----7-----7-----|-7-----7-----7-----7-----| 
|-3-3-3-3-3-3-5-5-5-5-5-5-|-7-7-7-7-7-7-7-7-7-7-7-7-|-7-7-7-7-7-7-7-7-7-7-7-7-| 
|-------------3-3-3-3-3-3-|-5-5-5-5-5-5-5-5-5-5-5-5-|-5-5-5-5-5-5-5-5-5-5-5-5-| 
 
12 Guitar 4 
|--12--13--15--13--15--17-|-15--17--19--19--19b21--19b21~--|-19b21~--| 
|-------------------------|--------------------------------|---------| 
|-------------------------|--------------------------------|---------| 
|-------------------------|--------------------------------|---------| 
|-------------------------|--------------------------------|---------| 
|-------------------------|--------------------------------|---------| 
| Base Guitar 3 
|-------------------------|-------------------------|-------------------------| 
|-------------------------|-------------------------|-------------------------| 
|-------------------------|-------------------------|-------------------------| 
|-5-----5-----5-----5-----|-3-----3-----5-----5-----|-7-----7-----7-----7-----| 
|-5-5-5-5-5-5-5-5-5-5-5-5-|-3-3-3-3-3-3-5-5-5-5-5-5-|-7-7-7-7-7-7-7-7-7-7-7-7-| 
|-3-3-3-3-3-3-3-3-3-3-3-3-|-1-1-1-1-1-1-3-3-3-3-3-3-|-5-5-5-5-5-5-5-5-5-5-5-5-| 
 
13 Guitar 4 
|--20b22~--|--22b24--22b24--22b24--|--22b24--22b24--22b24--22b24--20--19-|-20~~--| 
|----------|-----------------------|-------------------------------------|-------| 
|----------|-----------------------|-------------------------------------|-------| 
|----------|-----------------------|-------------------------------------|-------| 
|----------|-----------------------|-------------------------------------|-------| 
|----------|-----------------------|-------------------------------------|-------| 
| Base Guitar 3 
|-------------------------|-------------------------|------------------|-----| 
|-------------------------|-------------------------|------------------|-----| 
|-------------------------|-7-----------------------|-5--5--5----------|-----| 
|-------------------------|-7-7-7-7-7-7-7-7-7-7-7-7-|-5--5--5--5--5--5-|--7--| 
|-7-7-7-7-7-7-7-7-7-7-7-7-|-5-5-5-5-5-5-5-5-5-5-5-5-|-3--3--3--5--5--5-|--7--| 
|-5-5-5-5-5-5-5-5-5-5-5-5-|-------------------------|----------3--3--3-|--5--| 
 
Solo 2 
 Guitar 1 
|----5----5----7----7--|----8-----8-----8-----8---|----5----5----7----7--| 
|----6----6----8----8--|----10----10----10----10--|----6----6----8----8--| 
|----7----7----9----9--|----9-----9-----9-----9---|----7----7----9----9--| 
|----------------------|--------------------------|----------------------| 
|----------------------|--------------------------|----------------------| 
|----------------------|--------------------------|----------------------| 
| Guitar 3 
|----------------15--------|-----------------------15-17-x-|-----15b17-----------| 
|-------13-15b17----15b17~-|-15b17-13----13--15b17---------|-17~-----------13-15-| 
|-12-14--------------------|----------14-------------------|------------14-------| 
|--------------------------|-------------------------------|---------------------| 
|--------------------------|-------------------------------|---------------------| 
|--------------------------|-------------------------------|---------------------| 
 
 Guitar 1 
|----8-----8-----8-----8---|----5----5----7----7--| 
|----10----10----10----10--|----6----6----8----8--| 
|----9-----9-----9-----9---|----7----7----9----9--| 
|--------------------------|----------------------| 
|--------------------------|----------------------| 
|--------------------------|----------------------| 
| Guitar 3                         1/4 
|-----------------|-------15-----------| 
|-15br17-13---13~-|-15b17----15b17-13b-| 
|----------14~----|--------------------| 
|-----------------|--------------------| 
|-----------------|--------------------| 
|-----------------|--------------------| 
 
 Guitar 1 
|----8-----8-----8-----8---|----5----5--7--7--7--7----| 
|----10----10----10----10--|----6----6--8--8--8--8----| 
|----9-----9-----9-----9---|----7----7--9--9--9--9----| 
|--------------------------|--------------------------| 
|--------------------------|--------------------------| 
|--------------------------|--------------------------| 
| Guitar 3                                                          Inicio da base 
|------------------------------|-------5-----5-----5-----------|------------------| 
|----13----13~-15-13~-15-13----|-13~/5---8-----8-----8-5-8-5---|------------------| 
|-14----14------------------14-|-----------7-----7-----------7-|------------------| 
|------------------------------|-------------------------------|---7~-------------| 
|------------------------------|-------------------------------|------------------| 
|------------------------------|-------------------------------|------------------| 
 
Base 
 Guitar 1 (only) 
|---------0---------------0-------|----------0---------------0-------| 
|-------1---1-----------1---1-----|--------0---0-----------0---0-----| 
|-----2-------2-------2-------2---|------0-------0-------0-------0---| 
|---2-----------2---2-----------2-|----2-----------2---2-----------2-| 
|-0---------------0---------------|----------------------------------| 
|---------------------------------|--0---------------0---------------| 
 
|---------3---------------2-------|-------------------| 
|-------0---0-----------3---3-----|-(1)3--1--0-1-0----| 
|-----0-------0-------2-------2---|----------------2--| 
|---0---------------0-----------0-|-------------------| 
|---------------2-----------------|-------------------| 
|-3---------------2---------------|-------------------| 
 
|----------0---------------0-------|----------0---------------3-------| 
|--------1---1-----------0---0-----|--------0---0-----------0---0-----| 
|------2-------2-------0-------0---|------0-------0-------0-------0---| 
|----2-----------2---2-----------2-|----2-----------2---0-------------| 
|--0-------------------------------|--------------------------------2-| 
|------------------0---------------|--0---------------3---------------| 
 
|----------3---------------2-------|--3-----3-2-------| 
|--------0---0-----------3---3-----|----3-------3---3-| 
|------0-------0-------2-------2---|------2-------2---| 
|----0---------------0-----------0-|------------------| 
|----------------2-----------------|------------------| 
|--3---------------2---------------|------------------| 
 
Refrão 
 Guitar 1                                                     repete 2x 
|----------------------------------|--------------------------3-2-0---| 
|----------------------1-----1---1-|----------------------3---------3-| 
|------0-----0---0-----------------|------0-----0---0---2---2---------| 
|----2-----2---------2-----2-------|----0-----0-------0---------------| 
|------------------3-----3-----3---|----------------------------------| 
|--0-----0-----0-------------------|--3-----3-----3-------------------| 
| Guitar 3 
|----------------------------------|----------------------------------| 
|----------------------------------|----------------------------------| 
|------------------5---------------|------------------7---------------| 
|---2--------------5---------------|--5---------------7---------------| 
|---2--------------3---------------|--5---------------5---------------| 
|---0------------------------------|--3-------------------------------| 
 
 Guitar 1 
|----------------------------------|------------------------0-2-------| 
|----------------------1-----1---1-|----------------------3-----3-----| 
|------0-----0---0-----------------|------0-----0---0---2---------2---| 
|----2-----2---------2-----2-------|----0-----0-------0-------------0-| 
|------------------3-----3-----3---|----------------------------------| 
|--0-----0-----0-------------------|--3-----3-----3-------------------| 
| Guitar 3 
|----------------------------------|----------------------------------| 
|----------------------------------|----------------------------------| 
|------------------5---------------|------------------7---------------| 
|---2--------------5---------------|--5---------------7---------------| 
|---2--------------3---------------|--5---------------5---------------| 
|---0------------------------------|--3-------------------------------| 
 
 Solo 3  
 Guitar 4 
|--12-14-15~---12-14-15~--|--15b17---15-14~--|--12-14-15~---12-14-15~--| 
|-------------------------|------------------|-------------------------| 
|-------------------------|------------------|-------------------------| 
|-------------------------|------------------|-------------------------| 
|-------------------------|------------------|-------------------------| 
|-------------------------|------------------|-------------------------| 
| Guitar 3 
|-------------------------|------------------|-------------------------| 
|-------------------------|------------------|-------------------------| 
|--------------5----------|--------------7---|--------------5----------| 
|--2-----------5----------|--5-----------7---|--2-----------5----------| 
|--2-----------3----------|--5-----------5---|--2-----------3----------| 
|--0----------------------|--3---------------|--0----------------------| 
 
 Guitar 4 
|--17b19--17-15-17~--|--12-14-15~--12-14-15~--|--15b17---15--14~--14--| 
|--------------------|------------------------|-----------------------| 
|--------------------|------------------------|-----------------------| 
|--------------------|------------------------|-----------------------| 
|--------------------|------------------------|-----------------------| 
|--------------------|------------------------|-----------------------| 
| Guitar 3 
|--------------------|------------------------|-----------------------| 
|--------------------|------------------------|-----------------------| 
|----------------7---|-------------5----------|---------------7-------| 
|--5-------------7---|--2----------5----------|----5----------7-------| 
|--5-------------5---|--2----------3----------|----5----------5-------| 
|--3-----------------|--0---------------------|----3------------------| 
 
 Guitar 4 
|--17b19--17--15--17--15~--|--15--15~---17--17~-------| 
|--------------------------|--------------------------| 
|--------------------------|--------------------------| 
|--------------------------|--------------------------| 
|--------------------------|--------------------------| 
|--------------------------|--------------------------| 
| Guitar 3 
|--------------------------|--------------------------| 
|--------------------------|--------------------------| 
|------------------5-------|-----------------7--------| 
|----2-------------5-------|--5--------------7--------| 
|----2-------------3-------|--5--------------5--------| 
|----0---------------------|--3-----------------------| 
 
 Final 
 Guitar 1 (Only) 
|----------------------------------|--------------------------0------| 
|--0-----1-----1---0-----1-----1---|--0-----1-----1------------------| 
|----2-----2-----2---0-----0-----0-|----2-----2-----2-----0----------| 
|------2-----2---------0-----0-----|------3-----3-------2---2--------| 
|--0-------------------------------|---------------------------------| 
|------------------3---------------|--1---------------0--------------| 
  
Guitar 1 - Acoustic Guitar (Nylon) ou (Guitar Clean) 
Guitar 2 - Acoustic Guitar (Steel) ou (Guitar Clean) 
Guitar 3 - Distortion Guitar 
Guitar 4 - Distortion Guitar 
Tap to rate this tab
# A B C D E F G H I J K L M N O P Q R S T U V W X Y Z