Song name
# A B C D E F G H I J K L M N O P Q R S T U V W X Y Z

Bruce Dickinson - Man Of Sorrows tab

Man of Sorrows Solo
Track no.7 from Bruce Dickinson's album Accident of Birth [1997]
Solo by Adrian Smith

I couldn't find any good tab here, so I tabbed this song on my own.
If you have any suggestions or comments, please contact me at:
b.brachaczek@gmail.com

I also uploaded my Guitar Pro tab here. These are exact the same.

Tablature Legend
----------------
x - dead note
(n) - ghost note
h - hammer on
p - pull off
b - bend*
br - bend and release*
s - legato slide
/ -  slide into from below
\ -  slide out of downwards
~ - vibrato
PM - palm muting

* - above all bends I put numbers: 1 means this is
    full (2 semitones) bend, 1/4 means this is
    light 1/2 semitone bend


Tempo is 75 (quarter note), key d-moll, and time signature 4/4.


       1            1
E||---------------------------------------|
B||--13b----13-10-------------------------|
G||---------------12br-h10-12~~---10\-----|
D||---------------------------------------|
A||---------------------------------------|
E||---------------------------------------|

       PM--|                             
----------------------------------------|
----------8--10-------------------------|
--10-9-10----------10-9----/12~~--\-----|
----------------10------8---------------|
----------------------------------------|
----------------------------------------|

  PM--------|             PM--------|       
--------------------12-13--------------------8-|
-------------------------------------------8---|
--------------10-14-------------------9-10-----|
-----------12----------------------10----------|
--------12----------------------10-------------|
--10-13-------------------8--12----------------|

                      1/4      PM--|    
---------------------------------------------|
--11-10-8------------------------------------|
----------10-9h10p9-7-6b---------------------|
-------------------------8-7-5---------------|
-------------------------------8--7----------|
-------------------------------------5~~--\--|

    1
--13b--r-13~~------18-17-15-13--------|
------------------x-------------------|
-----------------x-------------14~~---|
--------------------------------------|
--------------------------------------|
--------------------------------------|

    1
---------10---------------------------------------|
--13b-------13-10---------------------------------|
------------------13-12-10------------------------|
---------------------------12-10------------------|
---------------------------------12-11-10s8-------|
--------------------------------------------10----|
                                                          1   1      1
--------------------------------|-----------15-17-18-20-20b-20b----20b----|
--------------------------------|--15-17-18-------------------------------|
--/10-s-7--7~~---/12-s-9--9~~---|-----------------------------------------|
--------------------------------|-----------------------------------------|
---/8-s-5--5~~---/10-s-7--7~~---|-----------------------------------------|
--------------------------------|-----------------------------------------|

    1    1    1    1    1    1    1
--22b--22b--22b--22b--22b--22b--22b--r-22~~--\--|
------------------------------------------------|
------------------------------------------------|
------------------------------------------------|
------------------------------------------------|
------------------------------------------------|

              Let ring
--------------------10-12-13p12-10-|
-----------------10----------------|
--------------10-------------------|
-----------12----------------------|
-----------------------------------|
-----------------------------------|

--------------------------------------------|
--------------------11-------11-10-------10-|
-----10p9-----------------10----------10----|
----------12-12~~------12----------12-------|
--------------------------------------------|
--------------------------------------------|

--------------------------------------||
--------------------------------------||
--12------12-10-9---------------------||
-------10---------12p10-(12s0)--------||
--------------------------------------||
--------------------------------------||
Tap to rate this tab
# A B C D E F G H I J K L M N O P Q R S T U V W X Y Z