Song name
# A B C D E F G H I J K L M N O P Q R S T U V W X Y Z

Bruce Dickinson - Chemical Wedding tab

-----------------------------------------------------------------------------
			     CHEMICAL WEDDING - Bruce Dickinson
-----------------------------------------------------------------------------
Tabbed by: trooper_94
Email: marcus_chavasse@hotmail.com

Tuning: eBGDAE

Main Riff
                                    1.2.3.   4.
e|-----------------------------------|--------|--------|
B|o---------------------------------o|--------|--------|
G|--999999999999-77-66-555555555555--|--7777--|--8888--|
D|--999999999999-77-66-555555555555--|--7777--|--8888--|
A|o-777777777777-55-44-333333333333-o|--5555--|--6666--|
E|--777777777777-55-44-333333333333--|--5555--|--6666--|

Verse
e|--------------0-----------------------------------------------------------|
B|--------0--------0--------------------------------------------------------|
G|-----0--------------3--0--------------------------------------------------|
D|--2--------2-----------------2--4-----0-----------------------------------|
A|--------------------------3--------3-----4--2-----------------------------|
E|-----------------------------------------------3--------------------------|

Well, that's all I got, but its a good riff.
Go easy on me, 1st tab an' all.
:D \m/

=============================================================================
Tap to rate this tab
 
# A B C D E F G H I J K L M N O P Q R S T U V W X Y Z