Song name
# A B C D E F G H I J K L M N O P Q R S T U V W X Y Z

Bruce Dickinson - Tattooed Millionaire tab

BRUCE DICKISON - TATTOOED MILLIONIARE

This version is First Guitarist when he plays as rhythm guitarist of Bruce Dickison band. 
The solo Guitarist part isnt here but you have the whole song now anyway, Awesome!

BPM :    126 Allegero 4/4 
AMP:     Boosted Marshall JCM800
EQ:      Classic V or Midboost
Reverb:  somewhere 12 o´clock
Delay:   Rock´n roll style

*  Palm-mute
P  Pull-of
H  Hammer-on
V  Vibrato
¤  Harmonics
B  Bends
/  Up slides
\  Down Slides
x  Scrash



e|-----------------------------------------------------|
B|----10-10-----10\--4-4----3/---10-10----9--10-12~~---|
G|----9--9--9---10\--3-3-3--3/---9--9--9--9--9--11~~---|
D|-----------------------------------------------------| X6 
A|-----------------------------------------------------|
E|-----------------------------------------------------|

     *   *    *   * 
e|-----------------------------------|
B|-----------------------------------|
G|-----------------------------------|
D|---------4~-------2~-7-7/5-5/7-7---| X2 
A|-----2-0-2~---4-0-0~-5-5/3-3/5-5---|
E|---0-0------0-2--------------------|

     *      *      *      *
e|---------------------------------|
B|---------------------------------|
G|---------------------------------|
D|------------4~~-----------2~~----| X3 
A|-----2~~--0-2~~----4~~--0-0~~----|
E|---0-0~~---------0-2~~-----------|


e|-----------------------------------------------------|
B|----10-10-----10\--4-4----3/---10-10----9--10-12~~---|
G|----9--9--9---10\--3-3-3--3/---9--9--9--9--9--11~~---|
D|-----------------------------------------------------| X4 
A|-----------------------------------------------------|
E|-----------------------------------------------------|

     *   *    *   *
e|-----------------------------------|
B|-----------------------------------|
G|-----------------------------------|
D|---------4~-------2~-7-7/5-5/7-7---| X2
A|-----2-0-2~---4-0-0~-5-5/3-3/5-5---|
E|---0-0------0-2--------------------|

     *      *      *      *
e|---------------------------------|
B|---------------------------------|
G|---------------------------------|
D|------------4~~-----------2~~----| X3
A|-----2~~--0-2~~----4~~--0-0~~----|
E|---0-0~~---------0-2~~-----------|

     *      *      *      *
e|----------------------------------|
B|----------------------------------|
G|----------------------------------|
D|------------4~~------------2\-----| 
A|-----2~~--0-2~~----4~~~----0\-----|
E|---0-0~~---------0-2~~~-----------|

                 *                      *
e|---------------------------------------------|
B|---------------------------------------------|
G|----0-0-0-0-0-0--2-2\----0-0-0-0-0-0-0--2\---|
D|---2-2-2-2-2-2---2-2\---2-2-2-2-2-2-2---2\---|  
A|--0-0-0-0-0-0--0-0-0\--0-0-0-0-0-0-0--0-0\---|
E|---------------------------------------------|

 |     Solo Part 1 begins!      |
e|-----0------0-----0-----0-----|
B|------0------0-----0-----0----|
G|------------------------------|
D|----------4------------2------| 
A|---2-----2------4-----0-------|
E|--0------------2--------------|

 |       Solo part 1 ends!        |
 |                      * *       |
e|-----0------0-----0-------------|
B|------0------0-----0------------|
G|--------------------------2-2\--|
D|----------4---------------2-2\--| 
A|---2-----2------4-----0-0-0-0\--|
E|--0------------2----------------|

 |              Solo Begins and Fades!                 |
e|-----------------------------------------------------|
B|----10-10-----10\--4-4----3/---10-10----9--10-12~~---|
G|----9--9--9---10\--3-3-3--3/---9--9--9--9--9--11~~---|
D|-----------------------------------------------------| X2 
A|-----------------------------------------------------|
E|-----------------------------------------------------|

     *   *    *   *
e|-----------------------------------|
B|-----------------------------------|
G|-----------------------------------|
D|---------4~-------2~-7-7/5-5/7-7---| X2
A|-----2-0-2~---4-0-0~-5-5/3-3/5-5---|
E|---0-0------0-2--------------------|

     *      *      *      *
e|---------------------------------|
B|---------------------------------|
G|---------------------------------|
D|------------4~~-----------2~~----| X6
A|-----2~~--0-2~~----4~~--0-0~~----|
E|---0-0~~---------0-2~~-----------|

                 *                      *
e|-----------------------------------------------|
B|-----------------------------------------------|
G|----0-0-0-0-0-0--2-2\----0-0-0-0-0-0-0--2-2\---|
D|---2-2-2-2-2-2---2-2\---2-2-2-2-2-2-2---2-2\---| END
A|--0-0-0-0-0-0--0-0-0\--0-0-0-0-0-0-0--0-0-0\---|
E|-----------------------------------------------|
Tap to rate this tab
# A B C D E F G H I J K L M N O P Q R S T U V W X Y Z