Song name
# A B C D E F G H I J K L M N O P Q R S T U V W X Y Z

Bruce Dickinson - 1000 Points Of Light tab

Help us improve GuitareTab! Take a short survey!
                             "1000 Points of Light"
                            (B. Dickinson, Roy Z.)

              Guitar transcription by Aaron Shay (zerosig8@apk.net)


(intro / pre-chorus)
|-------------------------|
|-------------------------|
|-------------------------|
|-3-------3-------3-------|
|-1-------1-------1-------|
|---0-0-0---0-0-0---0-0---|

(unsure of some of these notes...)
--------------------------------------------------------
--------------------------------------------------------
--------------------------------------------------------
----------5/4----4/3------------5/4----4/3--------------
--0--6-7-------5--------0--6-7-------5-----4---7--------
--------------------------------------------------------
You can sail in the desert...                 a.h.

Then that first riff, then the chorus:

--------------------------------------------------------
--------------------------------------------------------
-2-------4---2---4---2---5/-7--5---2--4--2--4---5-7-7-9-
-2-------5---3---5---2---5/-7--5---2--5--3--5---5-7-7-9-
-0-------5---3---5---0---3/-5--3---0--5--3--5---3-5-5-7-
---------3---1---3--------------------3--1--3-----------
Related for 1000 Points Of Light tab