Guitaretab - guitar tabs
Song name
# A B C D E F G H I J K L M N O P Q R S T U V W X Y Z

Bruce Dickinson - Dreamstate tab

Main melodies/Intro, clean gtr with chorus/delay/light tremolo etc.
e-------------------------------------------------------|
b-----------------------3---------------3-------2-------|
g----3/4---3/4---3/4-(4)----4-3/4---3/4---4-3-----4-3-3-|
d-------------------------------------------------------|
a--2----------------------------------------------------|
e-------------------------------------------------------|

e-------------------------------------------------------|
b-----------------------3-5-3------------3-5-3----2-----|
g----3/4---3/4---3/4(4)------4-3/4---3/4--------4---4-3-|
d-------------------------------------------------------|
a--2----------------------------------------------------|
e-------------------------------------------------------|

bridge with heavy chorus-effect
e-----------------------|
b---0-----2-----2----3--|
g-----3-----3-----3-----|
d-------0-----0---------|
a-2---------------------|
e-----------------------|
[ Tab from: http://www.guitaretab.com/b/bruce-dickinson/82830.html ]
chorus
e--------------------------------------|
b--------------------------------------|
g--11--x-11--x-11-x-12--x-12--x-12-x---| x2
d--11--x-11--x-11-x-12--x-12--x-12-x---|
a--9---x-9---x-9--x 10--x-10--x-10-x---|
e--------------------------------------|

e----------------------0------|
b------------------------0----|
g--9--x-9--/-12--11--x----(0)-| x2
d--9--x-9--/-12--11--x--------|
a--7--x-7--/-10---9--9--------|
e-----------------------------|

e----------------------------------------------------------------------|
b----------------------------------------------------------------------|
g----------------------------------------------------------------------|
d--9--x-9-x--9--x-9-x--11--x-11-x--11--x-11-x--12-12-12-12-12-12-12-12-|
a--9--x-9-x--9--x-9-x--11--x-11-x--11--x-11-x--12-12-12-12-12-12-12-12-|
e--7--x-7-x--7--x-7-x--9---x-9--x---9--x-9--x--10-10-10-10-10-10-10-10-|

little latin-style solo (tee ite parempi:)
e----------------------------------------------------------------|
b----------------------------------------------------------------|
g----7--9-10-9-7---7-9-10-9----7--9-10-11b-11b-7-9-10~-9--7~---|
d-9--------------9-----------9-----------------------------------|
a----------------------------------------------------------------|
e----------------------------------------------------------------|
Related for Dreamstate tab