Song name
# A B C D E F G H I J K L M N O P Q R S T U V W X Y Z

Bruce Foxton - This Is The Way tab

		Devendra Banhart
			- This is the way

Tuning: Standard

The main part of this song is the A-chord. A hint is: Keep your index finger
barred on the D, G and B, while playing this. Enjoy!


Intro part 1:
 A

|-------------------------------------|
|---2----------2----------2-----------|
|---2--2---2---2--2---2---2--2---2----|
|---2----2-----2----2-----2----2------|
|-0----------0----------0-----------0-|
|-------------------------------------|


Intro part 2/Verse

|--------------------------------------|
|---------2-----------------2----------|
|-4-2-----2-2---2---4-2-----2---2------|
|-----4-2-2---2---------4-2-2-2---2----|
|-0-0-0-0---------0-0-0-0-0------------|
|-----------------------------------0--|
|                                      |
|                                      |
|--------------------------------------|
|---------2------------------2---------|
|-4-2-----2--2---2---4-2---4-2--2---2--|
|-----4-2-2----2---------4---2----2----|
|-0-0-0-0----------0-0-0-0-0-----------|
|------------------------------------0-|



Chorus: (I don't know what the fuck he's doing,
         but just play the A as in the intro!)

  A
|---------------------------------------------|
|---2----------2----------2----------2--------|
|---2--2---2---2--2---2---2--2---2---2--2---2-|
|---2----2-----2----2-----2----2-----2----2---|
|-0----------0----------0----------0----------|
|---------------------------------------------|
|
| D
|---------------------------------------------|
|--3----3---3---3--3---3---3--3---3-----------|
|--2-2--2h4-4---2----2-----2----2-------------|
|-0---0-------0----------0--------------------|
|---------------------------------------------|
|---------------------------------------------|


End: Strum A once.
Tap to rate this tab
# A B C D E F G H I J K L M N O P Q R S T U V W X Y Z