Song name
# A B C D E F G H I J K L M N O P Q R S T U V W X Y Z

Bruce Springsteen - Prove It All Night Live tab

-------------------------------------------------------------------------------
			     Prove it All Night (live) -solo- The Boss
-------------------------------------------------------------------------------
Tabbed by:Zach

Email:ZCFichter@gmail.com

Tuning:Std


Chords played under solo.

D E| E F#M|D E| C#M F#M| D E| E F#M|D......E

listen to the piano for when the chords come.

Intro Solo

----------------------------------------------------------------|
----------------------------------------------------------------|
----------------2h4---4b6----4b6--------4p2----------------2----|
---4~~~-----2h4------------------------------h4----4p2-------4--|
-------------------------------------------------------h4-------|
----------------------------------------------------------------|

----------------------------------------------------------------|
---------------------------------------------<2>----------------|
---------------2slightbend-4-----4-4b6-----------<4><2>---------|
-2-------2h4----------------------------------------------------|
---2~~~---------------------------------------------------------|
----------------------------------------------------------------|
not exactly sure on the pinch harmonic part. So that's just a frame.

----------------------------2-----------------------------------|
--<2>-------------------------------------------------------5---|
------<4><2>-<4><2>-------4-----4h2---------4/6---4-4-4-4-----6~|
--------------------<4>--------------4--------------------------|
----------------------------------------------------------------|
----------------------------------------------------------------|

2x
----------------------------------------------------------------|
----------------------------------------------------------------|
---6--4--2---6--4---2-2--1--------------------------------------|
----------------------------2/4~--------------------------------|
----------------------------------------------------------------|
----------------------------------------------------------------|

-2-2-----------2-2-2----------2-2--------2-2-2-2-2--------------|
------2---2----------2------------2-----2-2-2-2--2--------------|
----------4b6-----------4~~----------4--------------------------|
----------------------------------------------------------------|
----------------------------------------------------------------|
----------------------------------------------------------------|

---14---------14-14---------------------------------------------|
---17b19--------------------------------------------------------|
---------------------16b18r16p14-------------14-----------------|
---------------------------------h16---14h16----h16-16-16-16----|
----------------------------------------------------------------|
----------------------------------------------------------------|
           do the 14/16 a lot. and vibrato the 16 increasingly deeper

---------------------------------------19b21-19b21-19--19-19---19|
----------------------14h17/19~19~-17*----------------------19---|
-----------14-14-14----------------------------------------------|
---14h16---16-16-16~~--------------------------------------------|
-----------------------------------------------------------------|
-----------------------------------------------------------------|

                                               repeat a lot
-19-19-19----19b21-19b21-19b21-19p17---------------------20p--17-|
----------19--------------------------------------h19--------17--|
-----------------------------------------------------------------|
-----------------------------------------------------------------|
-----------------------------------------------------------------|
-----------------------------------------------------------------|

slide down the strings    repeat a lot.  bend higher each pick.
---14--------14-14-14---------14-14------------------------------|
------------------------------14-14-----17-17-17-17-17b18--------|
------16b18-------------16b18------------------------------------|
-----------------------------------------------------------------|
-----------------------------------------------------------------|
-----------------------------------------------------------------|
repeat a lot
-----------------------------------------------------------------|
17b19~~~~--------------------------------------------------------|
-----------------------------------------------------------------|
-----------------------------------------------------------------|
-----------------------------------------------------------------|
-----------------------------------------------------------------|
Tap to rate this tab
# A B C D E F G H I J K L M N O P Q R S T U V W X Y Z