Guitaretab - guitar tabs
Song name
# A B C D E F G H I J K L M N O P Q R S T U V W X Y Z

Bruce Springsteen - The Ghost Of Tom Joad tab

This is not the whole song but it is right. Use the other tab to find the correct chord 
but this is how you finger pick it

e|-----------------------------------------------------------------------------|
B|--------------3----------------------3--------------3------------------------|
G|----------4-----------------4----4--------------4-------4-----4--------------|
D|------4-----------------4--------------------4-------------4-----------------|
A|--2----------------2----------------------2----------------------------------|
E|-----------------------------------------------------------------------------|
[ Tab from: http://www.guitaretab.com/b/bruce-springsteen/128689.html ]
e|-------------------------------------------------------------------------------|
B|-----------3----------------------3--------------------------------------------|
G|-------4------4-----4---------4------4-----4 (play this a few times)-----------|
D|----4------------4---------4------------4--------------------------------------|
A|-2----------------------2------------------------------------------------------|
E|-------------------------------------------------------------------------------|

e|----------------------------------------------------------|
B|--------------3--------------------------------2----------|
G|----------2-----2-----2----------2---------2------2----2--|(play a few times)
D|-------0-----------2---------0----------2-----------2-----|
A|---0----------------------0----------0--------------------|
E|----------------------------------------------------------|

e|-----------------------------------------------------------------------------|
B|------------3--------------------------------3-------------------------------|
G|---------4-----4-----4---------2---------4------4----------------------------|
D|------4-----------4---------2----------4-------------------------------------|
A|--2----------------------0---------2-----------------------------------------|
E|-----------------------------------------------------------------------------|

that is the basic finger picking pattern. Just listen to the song so you will know
when to switch chords
Related for The Ghost Of Tom Joad tab