Song name
# A B C D E F G H I J K L M N O P Q R S T U V W X Y Z

Bruce Springsteen - Rosalita tab

                                 Rosalita (Come Out Tonight) - Bruce Springsteen
-------------------------------------------------------------------------------------------|
Tabbed by: Ultimate-Goodwi
Email:

Tuning: Standard
e|----------------1------------1-----------1--------------------------------------|l
B|-----1------------1------------1-----------1------------------------------------| Repeat
G|-------2---3---------3---2--------2---0-------0---------------------------l-----|    3x
D|--3--------3-------------3------------3-----------------------------------------|
A|--------------------------------------------------------------------------------|
E|--------------------------------------------------------------------------------|

e|--1---1---1---1---1---1----------------------------------------------------|
B|--1---1---1---1---1---1----------------------------------------------------|
G|--2---3---2---3---2---0----------------------------------------------------|
D|--3---3---3---3---3---3----------------------------------------------------|
A|---------------------------------------------------------------------------|
E|---------------------------------------------------------------------------|

e|----------------1------------1-----------1--------------------------------------|l
B|-----1------------1------------1-----------1------------------------------------| Repeat
G|-------2---3---------3---2--------2---0-------0---------------------------l-----|    8x
D|--3--------3-------------3------------3-----------------------------------------|
A|--------------------------------------------------------------------------------|
E|--------------------------------------------------------------------------------|
Tap to rate this tab
# A B C D E F G H I J K L M N O P Q R S T U V W X Y Z