Song name
# A B C D E F G H I J K L M N O P Q R S T U V W X Y Z

Bruce Springsteen - Worlds Apart tab

there are two solo's in this fantastic song. one in the middle and another one in the 
i wasn't able to figure out the ending of the second solo, so if you do, please tell me: ssteinwender@gmx.at
hope you like it

first solo:

e|-------------------------------------------------------------------------|
B|------------------------------------------------10-10b12r10---10---------|
G|-12--11-----------------11-12-11--9----9---9-12------------------12-11---|
D|--------12-----------12-------------12-----------------------------------|
A|-----------12--12-12-----------------------------------------------------|
E|-------------------------------------------------------------------------|

e|-----------------------------------------------------------------|
B|-----------------------------------------------------------------|
G|----------11-12-11-----------------------------------------------|
D|-------12-----------12--12s14--12-12s14--12-12s14--12-12s14------|
A|-12-12-----------------------------------------------------------|
E|-----------------------------------------------------------------|


2nd solo:

e|-------12-----15h17-17-17-17----15h17----17b19-19-19br--15------------|
B|-15b17-----------------------------------------------------17--17-15--|
G|----------------------------------------------------------------------|
D|----------------------------------------------------------------------|
A| 12 times -------------------- 8 times -------------------------------|
E|----------------------------------------------------------------------|

e|-15-14-----15-14-----------------------------------------------------|
B|-------12--------12----------12---------12---------------------------|
G|--------------------14-12-14-------14--------14----------------------|
D|---------------------------------------------------------------------|
A|-----------------------------(5x)-(4x)-(5x)-(4x)--don't know what----|
E|--------------------------------------------------he plays then------|
Tap to rate this tab
# A B C D E F G H I J K L M N O P Q R S T U V W X Y Z