Song name
# A B C D E F G H I J K L M N O P Q R S T U V W X Y Z

Bruce Springsteen - No Surrender tab

No surrender - Bruce Springsteen

-Intro:

e--15-13-15-13-13-15-13-13-11--|
b--15-13-15-13-13-15-13-13-11--|
g--12-10-12-10-10-12-10-10--8--|
D--12-10-12-10-10-12-10-10--8--|
A------------------------------|
E------------------------------|


e--7-7-7-9-11-12-13-12-11-9-7---|
b--7-7-7-9-11-12-13-12-11-9-7---|
g--4-4-4-6--8--9-10--9--8-6-4---|
D--4-4-4-6--8--9-10--9--8-6-4---|
A-------------------------------|
E-------------------------------|

(bis)

The first part is 100% correct, but the second part needs some corrections, sorry for 
mistakes.

Any cuestion: santino_@hotmail.es
Tap to rate this tab
# A B C D E F G H I J K L M N O P Q R S T U V W X Y Z