Song name
# A B C D E F G H I J K L M N O P Q R S T U V W X Y Z

Bruce Springsteen - A Night With The Jersey Devil tab

This is pretty much the whole song. Remember there is distortion too. This is my
first tab, so please enjoy. It sounds good to me and really like it.


|-----------------------|
|----2-0----------------|
|----2-0----------------|
|----2-0-2--------------|
|--------2--------------|
|--0-------x-x-x-x-x----|

Then the ending where he's going "Baby, baby, baby" is this.

|------------------------|
|------------------------|
|------------------------|
|--2-2-2-2---------------|
|--0-0-0-0-2-2-2-2-------|
|----------0-0-0-0-------|
Tap to rate this tab
# A B C D E F G H I J K L M N O P Q R S T U V W X Y Z