Song name
# A B C D E F G H I J K L M N O P Q R S T U V W X Y Z

Bruce Springsteen - Cadillac Ranch tab

Cadillac Ranch- Bruce Springsteen
Tabbed by:BossFan65

for a brighter sound you can play the same thing only start on the 9th fret of the d 
and play the same thing only a few frets higher. This sounds more like the studio version.

Tuning:Standard

e|--------------------------------------------------------------------------------|
B|----------------5------------------5-----------------5-------7-----5------------|
G|--------6----------------------6----------------6---------------6---------------|
D|--7-------------------------7---------------7-----------------------------------|
A|--------------------------------------------------------------------------------|
E|--------------------------------------------------------------------------------|

e|----------------5-------------5---------------------------------------------------|
B|----5--5-----7-------5-----7---------5--5---7-------5-----------------------------|
G|------------------------------------------------6---------------------------------|
D|----------------------------------------------------------------------------------|
A|----------------------------------------------------------------------------------|
E|----------------------------------------------------------------------------------|

e|----------------------------------------------------------------------------------|
B|-----------------5----------5------------5-----7-------5--------------------------|
G|----------6------------6-------------6-------------6------------------------------|
D|----7-------------7--------------7------------------------------------------------|
A|----------------------------------------------------------------------------------|
E|----------------------------------------------------------------------------------|

e|------------------5------------5------5---7-7---9--7---5-----------------------------|
B|-----5---5---7----------5--7---------------------------------------------------------|
G|-------------------------------------------------------------------------------------|
D|-------------------------------------------------------------------------------------|
A|-------------------------------------------------------------------------------------|
E|-------------------------------------------------------------------------------------|

| /  slide up
| \  slide down
| h  hammer-on
| p  pull-off
| ~  vibrato
| +  harmonic
| x  Mute note
===============================================================================
Tap to rate this tab
 
# A B C D E F G H I J K L M N O P Q R S T U V W X Y Z