Song name
# A B C D E F G H I J K L M N O P Q R S T U V W X Y Z

Bruce Springsteen - Wrong Side Of The Street tab

This is the solo to Wrong Side of the Street on Bruce Springsteen's The Promise.
I can't be sure that I put everything in exact, but if you listen to the song,
it's easy to figure out with some idea of what to plat.

|-----------------------------------------------------------------------------|
|--12-12-12-13-12-12-10-12-12-12-12-12-13-12-10-12-12-12-12-12-13-12-12-10-12-|
|-----------------------------------------------------------------------------|
|-----------------------------------------------------------------------------|
|-----------------------------------------------------------------------------|
|-----------------------------------------------------------------------------|

|----------------------------------------------------------------------------|
|--13-12-10-10-10---------------------------10-----10---12-------------------|
|-----------------12-12-12-12-10-12-12-12-------12---------------------------|
|----------------------------------------------------------------------------|
|----------------------------------------------------------------------------|
|----------------------------------------------------------------------------|

|-----------------------------------------------------------------------------|
|--12-12-12-13-12-12-10-12-12-12-12-12-13-12-10-12-12-12-12-12-13-12-12-10-12-|
|-----------------------------------------------------------------------------|
|-----------------------------------------------------------------------------|
|-----------------------------------------------------------------------------|
|-----------------------------------------------------------------------------|

|---------------------13-13-13-13-13-13-13-13-13-15-15-15vvvvvvvv------------|
|--12-12-13-15-15-15---------------------------------------------------------|
|----------------------------------------------------------------------------|
|----------------------------------------------------------------------------|
|----------------------------------------------------------------------------|
|----------------------------------------------------------------------------|
Tap to rate this tab
 
# A B C D E F G H I J K L M N O P Q R S T U V W X Y Z