Song name
# A B C D E F G H I J K L M N O P Q R S T U V W X Y Z

Bruce Springsteen - Open All Night tab

	     open all night- brucespringsteen
                                   This song works best using youre thum as a pick 

By:david klein david164us@yahoo.com Requests for a springsteen song email me plesaes
  
intro: and tab for [Well, I Had............checked] 
e|----------------------------------------------------------
B|----------------------------------------------------------
G|----------------------------------------------------------
D|----------------------------------------------------------
A|--2----2----4---2---2---4---2---2---4---------------------
E|--0----0----0---0---0---0---0---0---0---------------------
             
Well, I had the car buet or, baby, cleanned and checked. 
e|----------------------------------------------------------
B|----------------------------------------------------------
G|----------------------------------------------------------D|---2---2---4---2---2---4----------------------------------
A|---0---0---0---0---0---0----------------------------------
E|----------------------------------------------------------
          and keep playing this till the end of the sentance.
With her line blown out she's hummin like a turbojet.
e|----------------------------------------------------------
B|----------------------------------------------------------
G|---2---2---4---2---2---4---2---2---4---2---2---4----------
D|---0---0---0---0---0---0---0---0---0---0---0---0----------
A|----------------------------------------------------------
E|----------------------------------------------------------
   AND REPEAT THE TAB AGAIN FOR THE REST OF THE LYRICS 
Tap to rate this tab
 
# A B C D E F G H I J K L M N O P Q R S T U V W X Y Z