Song name
# A B C D E F G H I J K L M N O P Q R S T U V W X Y Z

Bruce Springsteen - We Take Care Of Our Own chords

Highlighted       Show chord diagrams
The Boss's first single from Wrecking Ball.  

The song is mostly just chords but there is a riff that runs through - 
   F      A#
e|-1--------------------------------------------------------------------------|
B|-1--------------------------------------------------------------------------|
G|-2-2-0-2-0-2-3-2-0----------------------------------------------------------|
D|-3--------------------------------------------------------------------------|
A|-3--------------------------------------------------------------------------|
E|-1--------------------------------------------------------------------------| 

INTRO (Drum solo then this little background guitar) 

e|-13-1--------| 

VERSE 1 
F                        A#                          (RIFF) 
I've been knockin' on the door that holds the throne 
I've been looking for the map that leads me home
C                      A#
I've been stumblin on good hearts turned to stone 
The road of good intentions has gone dry as a bone 

F                   A# 
We take care of our own 
we take care of our own
wherever this flags flown 
We take care of our own 

VERSE 2 (Same chords) 
From Chicago to New Orleans, from the muscle to the bone 
From the shotgun shack to the superdome 
Aint no help, the cavalry's stayed home 
There aint noone hearing the bugle blown 

We take care of our own 
we take care of our own 
wherever this flags flown 
We take care of our own 

   C    A#         C      A#         F    A#         F     A#
e|---------------------------------------------------------------------------|
B|---------------------------------------------------------------------------|
G|-------3-2-3-2-0--------3-2-3-2-0--2-0-2-0-2-3-2-0--2-0-2-0-2-3-2-0--------|
D|-5-3-5------------5-3-5----------------------------------------------------|
A|---------------------------------------------------------------------------|
E|---------------------------------------------------------------------------|

VERSE 3

F                     A#
Where the eyes - the eyes with the will to see 
Where the hearts that run over with mercy 
Where's the love that has not forsaken me? 
Where's the work that'll set my hands, my soul free? 
Where's the spirit that'll reign, reign over me? 
Where's the promise from sea to shining sea? 
Where's the promise from see to shining sea? 
C             A# 
Wherever this flag is flown 
Wherever this flag is flown 
Wherever this flag is flown 

F                   A# 
We take care of our own 
We take care of our own 
Wherever this flag is flown 
We Take Care Of Our Own.
Tap to rate this tab
# A B C D E F G H I J K L M N O P Q R S T U V W X Y Z