Song name
# A B C D E F G H I J K L M N O P Q R S T U V W X Y Z

Bruce Springsteen - Independence Day tab

Another version of this great song! I also work out the solo, comment for opinions 
and corrections, I hope you like it!!


Bruce Springsteen - Independence Day
----------------------------------------------------------------------------

Capo on 3rd fret.

    G     D     A   Asus4
E|--3--|--2--|--0--|--0--|
B|--0--|--3--|--2--|--3--|
G|--0--|--2--|--2--|--2--|
D|--0--|----|--2--|--2--|
A|--2--|--x--|--0--|--0--|
E|--3--|--X--|--x--|--x--|

       
        G             D              G               D
-------8-|-8-10-10-8------|---------------8-|-8-10-10-8------|----------8-|
----10---|-----------10-8-|-8-10-10----10---|-----------10-8-|-10----10---|
-10------|----------------|---------10------|----------------|----10------|
---------|----------------|-----------------|----------------|------------|
---------|----------------|-----------------|----------------|------------|
---------|----------------|-----------------|----------------|------------|

G                D              A               G
--8-10-10-8------|--------------|---------------|-----|
------------10-8-|-8-10-10-8----|----8-8-8------|-----|
-----------------|-----------10-|-10-------7----|--7--|
-----------------|--------------|------------10-|-----|
-----------------|--------------|---------------|-----|
-----------------|--------------|---------------|-----|


                                 D
Well papa go to bed now it's getting late
                G                          D
Nothing we can say is gonna change anything now
          G                            D
I'll be leaving in the morning from St. Mary's Gate
             Asus4                               G
We wouldn't change this thing even if we could somehow

            G                                D
Cause the darkness of this house has got the best of us
           G                                  D
There's a darkness in this town that's got us too
                G                         D
But they can't touch me now and you can't touch me now
                 Asus4                              G
They ain't gonna do to me what I watched them do to you


                           D
So say goodbye it's Independance Day
         A                         G
It's Independance Day all down the line
                             D
Just say goodbye it's Independance Day
         A                 G
It's Independance Day this time


                                     D
Now I don't know what it always was with us
              G                           D
We chose the words, and yeah, we drew the lines
               G                              D
There was just no way this house could hold the two of us
               Asus4                               G
I guess that we were just too much of the same kind

                               D
Well say goodbye it's Independance Day
         A                          G
It's Independance Day all boys must run away
                             D
So say goodbye it's Independance Day
               A                        G
All men must make their way come Independance Day


(Sax solo) | G | D | G | D | G | D | Asus4 | G


--10b------|--------------|-------8--10b-|-8------8--8---|
-------8---|-8-8-10-10-10-|----10--------|----10---------|
-----------|--------------|-10-----------|---------------|
-----------|--------------|--------------|---------------|
-----------|--------------|--------------|---------------|
-----------|--------------|--------------|---------------|
      
--8-----|-----------|---------|-----------|
----h11-|-10--11-11-|--11h10--|-8--10-10--|
--------|-----------|---------|-----------|
--------|-----------|---------|-----------|
--------|-----------|---------|-----------|
--------|-----------|---------|-----------|
                                   
--------|-----------|---------------------|
--10h8--|-----8-8---|-------------8-------|
--------|-10--------|---7------7-----10---|
--------|-----------|------10-------------|
--------|-----------|---------------------|
--------|-----------|---------------------|


                                     D
Now the rooms are all empty down at Frankie's joint
              G                             D
And the highway she's deserted clear down to Breaker's Point
                        G                               D
There's a lot of people leaving town now, leaving their friends, their homes
               Asus4                             G
At night they walk that dark and dusty highway all alone

                                  D
Well papa go to bed now, it's getting late
                G                     D
Nothing we can say can change anything now
                                       G
Because there's just different people coming down here now
                                  D
And they see things in different ways
           Asus4                                  G
And soon everything we've known will just be swept away

                        D
So say goodbye it's Independance Day
            A                                   G
Papa now I know the things you wanted that you could not say
                                          D
But won't you just say goodbye it's Independance Day
            A                               G
I swear I never meant to take those things away


| G | D | G | D | G | D | Asus4 | G | (to fade out)


-----------------------------------------------------------------------
Added on February, 16 2012
Tap to rate this tab
# A B C D E F G H I J K L M N O P Q R S T U V W X Y Z