Song name
# A B C D E F G H I J K L M N O P Q R S T U V W X Y Z

Bruce Springsteen - Jack Of All Trades tab

-----------------------------------------------------------------------------
                             Jack Of All Trades - Bruce Springsteen
-----------------------------------------------------------------------------
Tabbed by: PendulumMan24
Tuning: Standard

e|-----------------------------------------------------12-14-12-14-16-17---|
B|--------------------------------------------------14-------------------12|
G|--2--------2-4-4b6b4-2------2-4b6-4b6b4b6b4b6----------------------------|
D|--------------------------4----------------------------------------------|
A|-------------------------------------------------------------------------|
E|-------------------------------------------------------------------------|

e|---------------------------------------------------------|
B|---------------------------------------------------------|
G|----4-2-4-4b6-2---2-4-4b6-2---2-4-4b6b4b6b4-2---2-4-4b6-2|
D|----------------4-----------4-----------------4----------|
A|---------------------------------------------------------|
E|---------------------------------------------------------|

e|--/5--/7--/9--/12--13b14---12---------12-14-16-17-16-/17-/17-------|
B|-------------------------------------------------------------------|
G|-------------------------------------------------------------------|
D|-------------------------------------------------------------------|
A|-------------------------------------------------------------------|
E|-------------------------------------------------------------------|

************************************

| /   slide up
| \   slide down
| h   hammer-on
| p   pull-off
| ~   vibrato
| +   harmonic
| x   Mute note
| b   Bend
| pb  Pre-bend
| br  Bend release
| pbr Pre-bend release
| brb Bend release bend

************************************
Tap to rate this tab
# A B C D E F G H I J K L M N O P Q R S T U V W X Y Z