Song name
# A B C D E F G H I J K L M N O P Q R S T U V W X Y Z

Bruce Springsteen - Easy Money tab

Artist:     Bruce Springsteen
Album:   Wrecking Ball
Song:     Easy Money
Tuning:  Standard
___________________________________________________________________________
e-----------------------------------------------------------------|
H-----------------------------------------------------------------|
G-------7-9-7-----------------------------7-9-7-------------------|
D-----9--------9-7------9---------------9--------9-7--------------|
A--10---------------10---------10----10---------------10--7-------|
E-----------------------------------------------------------------|

e-----------------------------------------------------------------|
H-----------------------------------------------------------------|
G------7-9-7-------------------------------4----------------------|
D----9-------9-7-9s10------5-------7-7-7-----7-5-----5------------|
A--7---------------------7----7-5------------------7--------------|
E-----------------------------------------------------------------|


have fun and enjoy playing
Tap to rate this tab
# A B C D E F G H I J K L M N O P Q R S T U V W X Y Z