Song name
# A B C D E F G H I J K L M N O P Q R S T U V W X Y Z

Bruce Springsteen - Jungleland tab




3-3-3-3-3-3-3-3-3-3-3-3-3-3-5-7-8-10-12-13-12------------------12-13-12--------|
-----------------------------------------------13-----13---13--13-13----15-13--|
-------------------------------------------------14-12---12--12----------------|
-------------------------------------------------------------------------------|
-------------------------------------------------------------------------------|
-------------------------------------------------------------------------------|

12-17-15-12-12-17-15-12-12-17---|
-13--------13-13-------13-13----|
--------------------------------|
--------------------------------|
--------------------------------|
--------------------------------|
Tap to rate this tab
# A B C D E F G H I J K L M N O P Q R S T U V W X Y Z