Song name
# A B C D E F G H I J K L M N O P Q R S T U V W X Y Z

Bruce Springsteen - Gypsy Biker tab

Bruce Springsteen - Gypsy Biker

tabbed by Avi Yaacov
Israel, August 16, 2013



Harmonica Intro:
e|---------------------------------------------------------------|
B|--17vvvvvv---17/19/20vvvvvv-----20-17-19vvvv----20-17-17vvvv---|
G|---------------------------------------------------------------|
D|---------------------------------------------------------------|
A|---------------------------------------------------------------|
E|---------------------------------------------------------------|


Solo (van Zant) @ 1:45

e|-----------------------------13v--|-----------------------------------------------|
B|---13/15-15vv----13b15r13p11------|---13b14r13--------------16---------13---------|
G|----(by bend)---------------------|------------15vv-----------15vv-----15b^b^b^---|
D|----------------------------------|-----------------------------------------------|
A|----------------------------------|-----------------------------------------------|
E|----------------------------------|-----------------------------------------------|

e|-------------------------------------------------------------------------------------|
B|--13---------------------------------------------------------------------------------|
G|--15b16r15--13-12vv------13-12-------------12----------------------------------------|
D|-------------------------------13-------13----13/15----13h15p13--12h13p12--10-10/12--|
A|-------------------------------------------------------------------------------------|
E|-------------------------------------------------------------------------------------|

Second part (Bruce), why so low on the mix...

e|---------------------------------------------------------------------|-----------------------|
B|--18-18-18-20vv---18-18-18-20vv----18-20-20-20b^bb^----20-18--------|---18-20-20-20-18------|
G|--------------------------------------------------------------20vv---|------------------20---|
D|---------------------------------------------------------------------|-----------------------|
A|---------------------------------------------------------------------|----this bar twice-----|
E|---------------------------------------------------------------------|-----------------------|


e|------------------------------|
B|--18h20v-18--16vv---15vvv-----|
G|------------------------------|
D|------------------------------|
A|------------------------------|
E|------------------------------|
Tap to rate this tab
# A B C D E F G H I J K L M N O P Q R S T U V W X Y Z