Song name
# A B C D E F G H I J K L M N O P Q R S T U V W X Y Z

Bruce Springsteen - Youll Be Coming Down chords

Highlighted       Show chord diagrams
--------------------------------------------------------------
        You'll Be Coming Down-Bruce Springsteen
--------------------------------------------------------------
Tabbed by:Nick V.
E-mail:BlindTerry333@gmail.com

Tuning:EADGBE

B Bsus B Bsus B Bsus B

B
White roses and misty blue eyes
E                                   F#
Red mornings, then nothin' but grey skies
B
A cup of coffee, a heart shot clean through
E                                   F#
The jacket you bought me gone daisy grey-blue
E                                   F#
You're smiling now but you'll find out
B                                  E
They'll use you up and spit you out now
E                                  F#
Your head's spinnin' in diamonds and clouds
B                       F#
But pretty soon it turns out

E                     F#
You'll be comin' down now, baby baby
B                  E
You'll be coming down
E                             F#
What goes around it comes around and
B                 E
You'll be comin' down

B
Easy street a quick buck and true lies
E                                   F#
Smiles as thin as those dusky blue skies
B
A silver plate of pearls my golden child
E                                   F#
It's all yours at least for a little while
B                                  E
You'll be fine long as your pretty face holds out
E                              F#
Then it's gonna get pretty cold out
B                                  E
An empty stream of stars shooting by
B                      F#
You got your hopes on high

E                     F#
You'll be comin' down now, baby baby
B                  E
You'll be coming down
E                             F#
What goes around it comes around and
B                 E
You'll be comin' down


A                              E
For a while you'll go sparklin' by

C#
Just another pretty thing on high...

Sax Solo

F# B C# (x2)

A  E F#



e|--------------------------------------------------------------------------|
B|-7-7--7-----------7-7--7----------7-7--7----------7-7--7------------------|
G|--------9--7--9----------9--7--6---------9--7--9--------9--7--6-----------|
D|--------------------------------------------------------------------------|
A|--------------------------------------------------------------------------|
E|--------------------------------------------------------------------------|

e|--------------------------------------------------------------------------|
B|-9-9--9-------------------9-9--9------------------------------------------|
G|---------11--9--11--11------------11--9--8/9------------------------------|
D|--------------------------------------------------------------------------|
A|--------------------------------------------------------------------------|
E|--------------------------------------------------------------------------|

B
Like a thief on Sunday morning
E                              F#
It all falls apart with no warning
B
Your cinnamon sky's gone candy-apple green
E                               F#
The crushed metal of your little flying machine

E                     F#
You'll be comin' down now, baby baby
B                  E
You'll be coming down
E                             F#
What goes around it comes around and
B                 E
You'll be comin' down

B Bsus B Bsus B Bsus B

Questions, comments, insults...BlindTerry33
Tap to rate this tab
# A B C D E F G H I J K L M N O P Q R S T U V W X Y Z