Song name
# A B C D E F G H I J K L M N O P Q R S T U V W X Y Z

Bruce Springsteen - Adam Raised A Cain tab

-------------------------------------------------------------------------------
			     Adam Raised a Cain- Bruce Springsteen
-------------------------------------------------------------------------------
Tabbed by:Jack


Tuning:Standard

Intro:




Bass line: E G A          E G A          E G A             A G E
e|---------------------------------------------------------------------------|
B|---------------------------------------------------------------------------|
G|-9-/~/---------------------------------------------------------------------|
D|---------------------------------------------------------------------------|
A|---------------------------------------------------------------------------|
E|---------------------------------------------------------------------------|
              B------              B--R                    B~~~
e|---------------------------------------------------------------------------|
B|----8---10-10--------------8-10-10----\8----------------15-----------------|
G|-9----------------------9----------------9---------------------------------|
D|---------------------------------------------------------------------------|
A|---------------------------------------------------------------------------|
E|---------------------------------------------------------------------------|
      ~   ~   ~             B--R          ~~
e|---10--10-(10)--0----------------------------------------------------------|
B|---10----------------------------------------------------------------------|
G|--------------------------2----\0------------------------------------------|
D|-----------------------------------2\0-2-----------------------------------|
A|---------------------------------------------------------------------------|
E|---------------------------------------------------------------------------|




VERSE/INTRO CHORDS:

          B1/2                      B1/2
e|---------------------------------------------------------------------------|
B|---------------------------------------------------------------------------|
G|---------------------------------------------------------------------------|
D|-------------2----------------2--------------------------------------------|
A|---2---------0------X3--------0--------2-----------------------------------|
E|---0---3^-------------------------3^---0-----------------------------------|

CHORUS CHORDS:(PICKED) AM - C  AM-C AM-B


SOLO:

e|---------------------------------------------------------------------------|
B|---------------------------------------------------------------------------|
G|-9/~/----------------------------------------------------------------------|
D|---------------------------------------------------------------------------|
A|---------------------------------------------------------------------------|
E|---------------------------------------------------------------------------|
          B   B  B  B  B  (REPEAT THIS MOTION)---------------------------->
e|------------0--0--0--0-----------------------------------------------------|
B|----8--10--10-10-10-10-----------------------------------------------------|
G|-9-------------------------------------------------------------------------|
D|---------------------------------------------------------------------------|
A|---------------------------------------------------------------------------|
E|---------------------------------------------------------------------------|
        B--R     ~   ~~                B~~~~                  B~~~~
e|------------------------------------------------------15-17-17-------------|
B|-----10----\8------------------8--10-10---------15\17----------------------|
G|---------------9-X-9-------7\9---------------------------------------------|
D|---------------------------------------------------------------------------|
A|---------------------------------------------------------------------------|
E|---------------------------------------------------------------------------|
               B~~~~                 B~~~~             B------R B
e|-----------------------------15-17-17--------------------12----------------|
B|------8--10-10--------15\17--------------------8-10-10--------10-\8--------|
G|--7\9-------------------------------------7\9-----------------------9-X-9--|
D|---------------------------------------------------------------------------|
A|---------------------------------------------------------------------------|
E|---------------------------------------------------------------------------|

      ~    +              +                                  ~B~  B
e|--------------------------------------------5\4\3--------------------------|
B|-----------------------------------------------------5\4\3-5---------------|
G|--7H9-7----------7H9-7-----------------0\2----------------------2-\0-------|
D|---------7--5-----------7--5------0\2--------------------------------------|
A|---------------------------------------------------------------------------|
E|---------------------------------------------------------------------------|
         ~~   =================
e|------------0--------------------------------------------------------------|
B|------------0--------------------------------------------------------------|
G|---------------------------------------------------------------------------|
D|--2\0-2--------------------------------------------------------------------|
A|---------------------------------------------------------------------------|
E|---------------------------------------------------------------------------|




| /  slide up
| \  slide down
| h  hammer-on
| p  pull-off
| ~  vibrato
| +  harmonic
| x  Mute note
|/~/ Shred/Tremilo
| =  LET RING
===============================================================================
Tap to rate this tab
# A B C D E F G H I J K L M N O P Q R S T U V W X Y Z