Song name
# A B C D E F G H I J K L M N O P Q R S T U V W X Y Z

Bruce Springsteen - Jungleland tab

Help us improve GuitareTab! Take a short survey!
Artist: Bruce Springsteen and the E Street Band
Song: Jungleland (Guitar and Saxophone solos)
Album: Born to Run

Tabbed by Anthony DePiano on October 19, 2008

Tuning: Standard (EADGBe)

b = bend
r = release bend to original note
v = vibrato

GUITAR SOLO:
e----8--------8------8------8-----8-----8--------8------|
B----8--------8------8------8-----8-----8--------8------|
G---10b12==--10b12==10b12==10b12=10b12=10b12==--10b12---|
D-------------------------------------------------------|
A-------------------------------------------------------|
E-------------------------------------------------------|

e---8-8-------8-8-8---8-8-8----8-8--8--8---8-8-8-----8--8----|
B---8-8-------8-8-8---8-8-8----8-8--8--8---8-8-8-----8--8----|
G--10b12==---10b12=--10b12==--10b12==-----10b12==---10b12==--|
D------------------------------------------------------------|
A------------------------------------------------------------|
E------------------------------------------------------------|

e------8-8-------8-8-8---8-8-8----8-8--8--8---8-8-8---8-10--|
B------8-8-------8-8-8---8-8-8----8-8--8--8---8-8-8---------|
G-----10b12==---10b12==-10b12==--10b12==-----10b12==--------|
D-----------------------------------------------------------|
A-----------------------------------------------------------|
E-----------------------------------------------------------|

e--12-----13-12----------------------------------------|
B--15b17--------13----------13vv--12-13------------12--|
G------------------12------------------14----12-14-----|
D---------------------15-14----------------------------|
A------------------------------------------------------|
E------------------------------------------------------|

e--12----------13-12--------12------------17--15-15-13--|
B--15b17r15-12-------15-13--15b17r15-12---18--17-17-15--|
G-------------------------------------------------------|
D-------------------------------------------------------|
A-------------------------------------------------------|
E-------------------------------------------------------|

e--12------------17--15-15-13---12----------18b20vvv-|
B--15b17r15-12---18--17-17-15---15b17r15-12----------|
G----------------------------------------------------|
D----------------------------------------------------|
A----------------------------------------------------|
E----------------------------------------------------|

SAX SOLO:
I play it using the third Minor Pentatonic Scale
formation in the Key of C which is this:
e--------------------------------13-15----|
B--------------------------13-16----------|
G--------------------12-15----------------|
D--------------13-15----------------------|
A--------13-15----------------------------|
E--13-15----------------------------------|
You can play it in whichever formation you like but
this one covers all the notes without changing to
different patterns.  Also, the notes ring better on
the second string rather than the first.

Sax Solo:
e---------------------------------------------------|
B--16vvvvvvvvvvvvvvvvvvvvv---13---------------------|
G-------------------------------15---------12-15vv--|
D---------------------------------------13----------|
A---------------------------------------------------|
E---------------------------------------------------|

e------------------------------------------|
B------------------------------------------|
G------------------------------------------|
D-----13-15b17r15-------13-15-15b17r15vv---|
A--15----------------15--------------------|
E------------------------------------------|

e---------------------------------------------------------|
B---------13vvvvvvvvvv-----14b-14b------------------------|
G--12--15-------------15----------15----------------------|
D---------------------------------------13-15b17r15--15---|
A---------------------------------------------------------|
E---------------------------------------------------------|

e----------------------------------------------------------|
B-------------------------13-13-----------------13-16------|
G--------------------12-15-----12----------12-15-----12----|
D-13-15b17r15--13-15-------------15---13-15-------------15-|
A----------------------------------------------------------|
E----------------------------------------------------------|

e----------------------------------------------------------|
B----------------------13----------------------------------|
G-12-15vvvvvv-12-15-15----15-15-12-15-12-12----------------|
D-------------------------------------------15-15b17r15-13-|
A----------------------------------------------------------|
E----------------------------------------------------------|


e----------------------------------------------------------|
B----------------------------------------------------------|
G-----------------------12-12------------------------------|
D----13-15b-13-13----13------15-15b-13--------13--15-13-13-|
A-15--------------15-----------------------15--------------|
E----------------------------------------------------------|

e--------------------------------------------------------|
B----------------------13-------------------13-16-13-----|
G----------------12-15---12-----------12-15----------15--|
D-----13---13-15-----------15---13-15--------------------|
A--15----------------------------------------------------|
E--------------------------------------------------------|

e-----------------------------------------------------------|
B-------------------------13---------------------13-16vvvvv-|
G-------12-15vvvvvv-12-15---15-15-12-15-----12-12-----------|
D-13-15-----------------------------------------------------|
A-----------------------------------------------------------|
E-----------------------------------------------------------|

e--------------------------------------------------|
B--13-16-13----------------------------------------|
G------------15------------------------------------|
D---------------15b17r15-13---15-13----13-13b------|
A-----------------------------------15--------15---|
E--------------------------------------------------|

e-------------------------------------------------------|
B---------------------------------13-13-----13-16-13-16-|
G-------------------------12-15b17---15b17--------------|
D----13-15-13-13----13-15-------------------------------|
A-15-------------15-------------------------------------|
E-------------------------------------------------------|

e------------------------------------------------|
B-13-16-13-16-13-16-13vvvv--------13-------------|
G---------------------------12-15----15-15-12-15-|
D------------------------------------------------|
A------------------------------------------------|
E------------------------------------------------|

e------------------------------------13------------------|
B-13-16-13-16-13-16-13-16-13-16-13-16---16-13------------|
G--------------------------------------------15----------|
D----------------------------------------------15br17r15-|
A--------------------------------------------------------|
E--------------------------------------------------------|

e---------------------------------------------------|
B--13-16--13-16--13--------------13----------13-----|
G---------------------------12-15---15--15b17==r15--|
D---------------------13-15-------------------------|
A---------------------------------------------------|
E---------------------------------------------------|

e-------------------------------------------------------|
B-------------------------------------------------------|
G--12----15b17r15--12-----------------------------------|
D-----15--------------15----13-15-15b17r15-13---13vvvv--|
A--------------------------------------------15---------|
E-------------------------------------------------------|
Related for Jungleland tab