Song name
# A B C D E F G H I J K L M N O P Q R S T U V W X Y Z

Brudadoug - Whitney tab

song-whitney
band-bruda'doug
tabbed by-Pam Steele

e[--------------------------------|
B[------------------------10-12-13|
G[-12^--12-14-12/11\12-12---------|
D[--------------------------------|
A[--------------------------------|
E[--------------------------------|


e[----------------------------------------|
B[----------------------------------------|
G[-12^*--12^-12^^^^---------------12^-9*--|
D[----------------------------9h12--------|
A[-----------------------10h12------------|
E[------------------10h12-----------------|

e[--------------------------------|
B[--------------------------------|
G[-12^--12-14-12/11\12-12-10-9----|
D[--------------------------------|
A[--------------------------------|
E[--------------------------------|

e[-12p10--10-10^-12p10--10-10^-10/12\14-10/12\14-15^^^^*]
B[------12------------12--------------------------------]
G[------------------------------------------------------]
D[------------------------------------------------------]
A[------------------------------------------------------]
E[------------------------------------------------------]
Tap to rate this tab
# A B C D E F G H I J K L M N O P Q R S T U V W X Y Z