Song name
# A B C D E F G H I J K L M N O P Q R S T U V W X Y Z

Brudadoug - In My World tab

song-in my world
artist-bruda'doug
tabbed by-Pam Steele


INTRO/MAIN RIFF:
  G           Em       C          D
e[-----3-3-3------3-3-3-----3-3-3-3-3-2-2]
B[-----3-3-3------3-3-3-----3-3-3-3-3-3-3]
G[-----0-0-0------0-0-0-----0-0-0-2-2-2-2]
D[-----0-0-0------2-2-2-2-2-2-2-2-0-0-0-0]
A[-2-2-2-2-2--2-2-2-2-2-3-3-3-3-3--------]
E[-3-3-3-3-3--0-0-0-0-0------------------]

PRE-CHORUS RIFF:
  G      Em     C   D
e[---5-3----5-3---5-3-7-5]
B[--0-----0------0-------]
G[-0-----0------0--------][2X]
D[-----------------------]
A[-----------------------]
E[-----------------------]

POST-CHORUS RIFF:
  G     Em  C    D  G   Em   C    D
e[---3--5-3---3--7----3--5-3---3--3-3-2-2]
B[--3-3------3-3--5--3-3------3-3-3-3-3-3]
G[-0--------0-------0--------0----2-2-2-2]
D[--------------------------------0-0-0-0]
A[---------------------------------------]
E[---------------------------------------]

SOLO:
  G              Em            C              D
e[---------------------------------------------------------]
B[---------10-12---------10-12---------10-12--13^*-13-12-10]
G[-12^*-12-------12^*-12-------12^*-12---------------------]
D[---------------------------------------------------------]
A[---------------------------------------------------------]
E[---------------------------------------------------------]
Tap to rate this tab
# A B C D E F G H I J K L M N O P Q R S T U V W X Y Z