Guitaretab - guitar tabs
Song name
# A B C D E F G H I J K L M N O P Q R S T U V W X Y Z

Brujeria - La Traicion tab

Author/Artist: Brujeria
Title: La Traicion
Album: Brujerizmo
Transcribed by: Juan carlos JAimes
Email: mextremist_666@yahoo.com
Instrument: Guitar
TUNING: (A D G C E A)

---INTRO---PLay 2x's
|----------------------------------------------------------------------------|
|----------------------------------------------------------------------------|
|----------------------------------------------------------------------------|
|----------------------------------------------------------------------------|
|-4-3-0-2-0-3-42222--4-3-0-2-0-3-42222--4-3-0-2-0-3-42222--4-3-0-2-0-3-42222-|
|-4-3-0-2-0-3-42222--4-3-0-2-0-3-42222--4-3-0-2-0-3-42222--4-3-0-2-0-3-42222-|

--VERSE-- PLAY 3x's            THEN PLAY THIS RIFF 1x
|------------------------------|------------------------------------------|
|-----------------------6----6-|------------------------------------------|
|------------------------5----5|------------------------------------------|
|-33-4-5-33-4-5-33-4-55---55---|-33-4-5-33-4-5-33-4-55--------------------|
|-33-4-5-33-4-5-33-4-55---55---|-33-4-5-33-4-5-33-4-55---4-3-4-3--4-5-4-5-|
|------------------------------|-------------------------4-3-4-3--4-5-4-5-|

--VERSE-- PLAY 3x's
|------------------------------|
|-----------------------6----6-|
|------------------------5----5|
|-33-4-5-33-4-5-33-4-55---55---|
|-33-4-5-33-4-5-33-4-55---55---|
|------------------------------|

----BRIDGE--- PLAY 3x's PALM MUTE
|------------------------------------------------------------------------|
|------------------------------------------------------------------------|
|------------------------------------------------------------------------|
|-33-4-5-33-4-5-33-4-55--------------------------------------------------|
|-33-4-5-33-4-5-33-4-55--43-43-44545-43-43-44545-43-43-44545-43-43-44545-|
|------------------------43-43-44545-43-43-44545-43-43-44545-43-43-44545-|

----BRIDGE--- PLAY 3x's PALM MUTE
|---------------------------------------------------|
|---------------------------------------------------|
|---------------------------------------------------|
|---------------------------------------------------|
|-4--3--0--2--0--3--42222---4--3--0--2--0--3--42222-|
|-4--3--0--2--0--3--42222---4--3--0--2--0--3--42222-|

----OUTRO----
|----------------------------------------------------------------------------|
|----------------------------------------------------------------------------|
|----------------------------------------------------------------------------|
|----------------------------------------------------------------------------|
|-4-3-0-2-0-3-42222--4-3-0-2-0-3-42222--4-3-0-2-0-3-42222--4-3-0-2-0-3-42222-|
|-4-3-0-2-0-3-42222--4-3-0-2-0-3-42222--4-3-0-2-0-3-42222--4-3-0-2-0-3-42222-|
[ Tab from: http://www.guitaretab.com/b/brujeria/36154.html ]
Related for La Traicion tab
Advertisement will be closed in 10 seconds