Guitaretab - guitar tabs
Song name
# A B C D E F G H I J K L M N O P Q R S T U V W X Y Z

Brujeria - Raza Odiada tab

Band:  BRUJERIA
Album: RAZA ODIADA
Song:  RAZA ODIADA (PITO WILSON)

Copyright (c)  ROADRUNNER RECORDS 1995
Version 1.0  JUNE 2006

Transcribed By: Snake666
Email:          pablo_cor666@hotmail.com
Send questions, comments, corrections to the email above


.  - palm mute
/  - slide up to
\  - slide down to


Tuning D A D G B E


Intro
|----------------------------------------------------------|
|----------------------------------------------------------|
|----------------------------------------------------------|
|--0-0---1--0--1--0-0---1--0--1--0-0---1--0--1--0-0--------|
|--0-0---1--0--1--0-0---1--0--1--0-0---1--0--1--0-0--------|
|--0-0---1--0--1--0-0---1--0--1--0-0---1--0--1--0-0--------|
   . .            . .            . .            . .

[ Tab from: http://www.guitaretab.com/b/brujeria/36158.html ]
Riff 1
|----------------------------------------------------------|
|----------------------------------------------------------|
|----------------------------------------------------------|
|--0-0---1--0--1--0-0---1--0--1--0-0---1--0--1--0-0---0-0--|
|--0-0---1--0--1--0-0---1--0--1--0-0---1--0--1--0-0---0-0--|
|--0-0---1--0--1--0-0---1--0--1--0-0---1--0--1--0-0---0-0--|
   . .            . .            . .           . .   . .


Riff 2
|-------------------------------|
|-------------------------------|
|-------------------------------|
|--0/3-3---0/1-0---0/3-3---0-1--|
|--0/3-3---0/1-0---0/3-3---0-1--|
|--0/3-3---0/1-0---0/3-3---0-1--|                      


Riff 3 (Pre-Outro)
|-------------------------|
|-------------------------|
|-------------------------|
|--0-0---0-0---0-0---0-0--|
|--0-0---0-0---0-0---0-0--|
|--0-0---0-0---0-0---0-0--|
   . .   . .   . .   . .


Outro
|-------------------------------|
|-------------------------------|
|-------------------------------|
|--0-0---0-0---0----------------|
|--0-0---0-0---0----------------|
|--0-0---0-0---0----------------|
   . .   . .


SONG STRUCTURE
Intro    (x2)
Riff 1   (x4)
Riff 2   (x8)
Riff 1   (x4)
Riff 2   (x8)
Intro    (x1)
Riff 1   (x4)
Riff 3   (x3)
Outro    (x1)

END
Related for Raza Odiada tab