Song name
# A B C D E F G H I J K L M N O P Q R S T U V W X Y Z

Brujeria - Consejos Narcos tab

Author/Artist: Brujeria
Title: Consejos narcos
Album: Raza odiada
Transcribed by: DAVITI 666
Email: daviti666@eresmas.com

version 1.0

   intro    x4
-|-----------||
-|-----------||
-|-----------||
-|--2-22-1---||
-|--2-22-1---||
-|--2-22-1---||
 pm . ..

   RIFF 1             x12
-|-----------------------||
-|-----------------------||
-|-----------------------||
-|--2-22-1-11-2-11-3-1-2-||
-|--2-22-1-11-2-11-3-1-2-||
-|--2-22-1-11-2-11-3-1-2-||
 pm . .. . .. . .. . . .

   RIFF 2           x4
-|--------------------||
-|--------------------||
-|--------------------||
-|--11-1-2-11-1-3-112-||
-|--11-1-2-11-1-3-112-||
-|--11-1-2-11-1-3-112-||
 pm .. .   .. .   ..

intro  x4
Riff 1 x5 +8
riff 2 x4
riff 1 x4
riff 2 x8
intro  x5
riff 1 x4 only bass
riff 2 x16
intro  x1

    Creo que esta mas o menos bien,pero fijo que se puede mejorar
Tap to rate this tab
 
# A B C D E F G H I J K L M N O P Q R S T U V W X Y Z