Song name
# A B C D E F G H I J K L M N O P Q R S T U V W X Y Z

Brujeria - La Ley De Plomo tab

Song: La Ley De Plomo
Band: Brujeria
Album: Raza Odiada
Transcribed: jose "pinche grenudo loko" oRejeL
Drop D

this is an updated version of my other tab...this time i changed it to A...well vote for my tab!!!

SPM: Slight Palm Mute
PM: Palm Mute

Intro:

A|----------------------------------------------------------------------|
E|----------------------------------------------------------------------|
C|----------------------------------------------------------------------|
G|----------------------------------------------------------------------|
D|----------------------------------------------------------------------|
A|--0-1-2-2-2-2-2-2--0-1-2-2-2-2-2-2--0-2-3-3-3-3-3-3--0-2-3-3-3-3-3-3--| thanks to DIESUPERFLY for this!!!
SPM . . . . . . . .  . . . . . . . .  . . . . . . . .  . . . . . . . .

Verse/Khorus:

|----------------------------|
|----------------------------|
|----------------------------| play this about 22 times
|----------------------------|
|--0-0--0-0-0--0-7-8--0-7-8--|
|--0-0--0-0-0--0-7-8--0-7-8--|
PM . .  . . .  . . .  . . .

Interlude:

|----------------------------------------------------------------------|
|----------------------------------------------------------------------|
|----------------------------------------------------------------------|
|----------------------------------------------------------------------|
|----------------------------------------------------------------------|
|--0-1-2-2-2-2-2-2--0-1-2-2-2-2-2-2--0-2-3-3-3-3-3-3--0-2-3-3-3-3-3-3--| thanks to DIESUPERFLY for this part!!!
SPM. . . . . . . .  . . . . . . . .  . . . . . . . .  . . . . . . . .

Bridge:

|--------------|
|--------------|
|--------------| play this 4 times
|--------------| then play bottom
|--0-0--0-0-0--| stanza
|--0-0--0-0-0--|

|----------------------------|
|----------------------------|
|----------------------------|
|----------------------------| play once then play bottom
|--0-0--0-0-0--0-7-8--0-7-8--|
|--0-0--0-0-0--0-7-8--0-7-8--|

Outro:

|----------------------------|
|----------------------------|
|----------------------------|
|----------------------------| play around 18 times
|--0-0--0-0-0--0-7-8--0-7-8--| if u want u kan palm mute
|--0-0--0-0-0--0-7-8--0-7-8--| this too


That's the whole song...it's' pretty easy...just remember if u want to play palm mute
on the intro and bridge...go ahead...but it also songs kool without it...later days...
Tap to rate this tab
# A B C D E F G H I J K L M N O P Q R S T U V W X Y Z