Song name
# A B C D E F G H I J K L M N O P Q R S T U V W X Y Z

Brujeria - Primer Meco tab

Song: Primer Meco
Band: Brujeria
Album: Raza Odiada
Transcribed: jose "pinche grenudo loko" oRejeL
Drop D

Here's another song by BRUJERIA...i listed the order it's played in also...please
vote for my tabs...thank you!!!


Intro/Verse:

E|--------------------------|
B|--------------------------|
G|--------------------------| play about 7 times
D|--------------(--strum--)-| strum on "4's" only!!!
A|--3-3-3-3-3-3--4-4-4-4-4--|
D|--3-3-3-3-3-3--4-4-4-4-4--|
PM  . . . . . .  . . . . .

Pre-Khorus

E|--------------|
B|--------------|
G|--------------| play about 7 times
D|------(strum)-|
A|--3-3--6-7-7--|
D|--3-3--6-7-7--|

Khorus:

E|--------------|
B|--------------|
G|--5--4--2--4--| play 2 times
D|--3--2--2--2--|
A|--3--2--0--2--|
D|--------------|

Verse:

E|--------------------------|
B|--------------------------|
G|--------------------------| play about 4 times
D|--------------(--strum--)-| strum on "4's" only!!!
A|--3-3-3-3-3-3--4-4-4-4-4--|
D|--3-3-3-3-3-3--4-4-4-4-4--|
PM  . . . . . .  . . . . .

Pre-Khorus

E|--------------|
B|--------------|
G|--------------| play about 8 times
D|------(strum)-|
A|--3-3--6-7-7--|
D|--3-3--6-7-7--|

Khorus:

E|--------------|
B|--------------|
G|--5--4--2--4--| play 2 times
D|--3--2--2--2--|
A|--3--2--0--2--|
D|--------------|

Outro:

E|--------------|
B|--------------|
G|--------------| play about 8 times
D|------(strum)-|
A|--3-3--6-7-7--|
D|--3-3--6-7-7--|

E|--------------------------|
B|--------------------------|
G|--------------------------| play ONE time
D|--------------(--strum--)-| strum on "4's" only!!!
A|--3-3-3-3-3-3--4-4-4-4-4--|
D|--3-3-3-3-3-3--4-4-4-4-4--|
PM  . . . . . .  . . . . .

well that's the whole song...well i'll write ta ya laters...
Tap to rate this tab
 
# A B C D E F G H I J K L M N O P Q R S T U V W X Y Z