Guitaretab - guitar tabs
Song name
# A B C D E F G H I J K L M N O P Q R S T U V W X Y Z

Brujeria - Hechando Chingasos tab

Brujeria  Hechando Chingasos (Grenudos Locos II)

INTRO/MAIN RIFF
E||--------------------------------|
B||--------------------------------|
G||--------------------------------|
D||--------------------------------|
A||--------------------------------|
E||--5-6-6-2--2-5-6-6-2--2-5-6-5-2-|
B||--3-4-4-0--0-3-4-4-0--0-3-4-3-0-|

INTRELUDE 1
E||----------------------|----------------------|
B||----------------------|---(PLAY 3X)----------|
G||----------------------|----------------------|
D||----------------3--3--|--3-------------3--3--|
A||----------------------|----------------------|
E||--2-------------------|----------------------|
B||--0-------------------|----------------------|
[ Tab from: http://www.guitaretab.com/b/brujeria/70353.html ]
INTRELUDE 2
E||----------------------|
B||----------------------|
G||----------------------|
D||----------------------|
A||----------------------|
E||--2-------------------|
B||--0-------------------|

PRE-CHORUS
E||--------------------------------|---------------------------|
B||--------------------------------|---------------------------|
G||--------------------------------|---------------------------|
D||--------------------------------|---------------------------|
A||--------------------------------|--------6-5--3--5--3--5-3--|
E||--5-2-2-5-2-2-5-2-2-5-2-2-5--5--|--5--5--4-3--1--3--1--3-1--|
B||--3-0-0-3-0-0-3-0-0-3-0-0-3--3--|--3--3---------------------|

SOLO
E||-----------------------------------||
B||-----------------------------------||
G||-----------------------------------||
D||--3-4-3-1-1-1-3-4-3-1-1-1-3-4-3-1--||
A||-----------------------------------||
E||-----------------------------------||
B||-----------------------------------||
Related for Hechando Chingasos tab