Guitaretab - guitar tabs
Song name
# A B C D E F G H I J K L M N O P Q R S T U V W X Y Z

Brujeria - Anti-castro tab

Legend
.  - palm mute           /  - slide up to
\  - slide down to       ~  - vibrato
h  - hammer on           b  - Bend
p  - pull off            Suffixes for bend
t  - tap                 f  - full bend    h - half bend
ph - pinched harmonic    q  - quarter bend t - tap bend
*  - see comment         ^  - Hold bend    r release bend
x  - Stuccatto           ~  - vibrato bend
,  - slight palm mute    () - ghost note, sustained note
"  - tremolo note        <> - Trill




Tunning A D G C E A

|--------------------|
|--------------------|
|--------------------|
|--------------------|
|-8-8--7--5--7--5--2-|
|-6-6--5--3--5--3--0-|
[ Tab from: http://www.guitaretab.com/b/brujeria/77684.html ]
|-------------------------------|
|-------------------------------|
|-------------------------------|
|-------------------------------|
|-8-8--7--5--7--5--2--222-2--222|
|-6-6--5--3--5--3--0--000-0--000|
                   .  . . .  ...

Chorus
|------------------|
|------------------|
|------------------|
|------------------|
|-3--4--6--4--8--7-|
|-1--2--4--2--6--5-|

Interlude
|---------------------------------|
|---------------------------------|
|---------------------------------|
|---------------------------------|
|---------------------------------|
|-1-1-1-2-2-2-4-4-2-2-2-6-6-6-5-5-|
  . . . . . . . . . . . . . . . .


Gtr Clean
          Repeat X3
|-5(5)(5)5(5)(5)5(5)(5)6--5h6-|-11(11)(11)11(11)(11)10(10)(10)8-|
|-----------------------------|---------------------------------|
|-----------------------------|---------------------------------|
|-----------------------------|---------------------------------|
|-----------------------------|---------------------------------|
|-----------------------------|---------------------------------|

END

Related for Anti-castro tab
Anti-castro chords by Brujeria