Song name
# A B C D E F G H I J K L M N O P Q R S T U V W X Y Z

Brujeria - Castigo Del Brujopunishment From The Brujo tab

.  - palm mute           /  - slide up to
\  - slide down to       ~  - vibrato
h  - hammer on           b  - Bend
p  - pull off            Suffixes for bend
t  - tap                 f  - full bend    h - half bend
ph - pinched harmonic    q  - quarter bend t - tap bend
*  - see comment         ^  - Hold bend    r release bend
x  - Stuccatto           ~  - vibrato bend
,  - slight palm mute    () - ghost note, sustained note
"  - tremolo note        <> - Trill

Tunning D A D G B E

Riff 1
8x
|-----------------------|
|-----------------------|
|-----------------------|
|-----------------------|
|--22-11-22-3333--------|
|--22-11-22-3333--------|

Riff 2
2x
|---------------------------------|
|---------------------------------|
|---------------------------------|
|---------------------------------|
|--777777777-4-3--777777777-5~----|
|--777777777-4-3--777777777-5~----|

Riff 1
4x
|-----------------------|
|-----------------------|
|-----------------------|
|-----------------------|
|--22-11-22-3333--------|
|--22-11-22-3333--------|

Riff 2
2x
|---------------------------------|
|---------------------------------|
|---------------------------------|
|---------------------------------|
|--777777777-4-3--777777777-5~----|
|--777777777-4-3--777777777-5~----|

Riff 1
4x
|-----------------------|
|-----------------------|
|-----------------------|
|-----------------------|
|--22-11-22-3333--------|
|--22-11-22-3333--------|

Riff 2
4x
|---------------------------------|
|---------------------------------|
|---------------------------------|
|---------------------------------|
|--777777777-4-3--777777777-5~----|
|--777777777-4-3--777777777-5~----|

Riff 1
4x
|-----------------------|
|-----------------------|
|-----------------------|
|-----------------------|
|--22-11-22-3333--------|
|--22-11-22-3333--------|

End Riff
1x
|-----------------------|
|-----------------------|
|-----------------------|
|-----------------------|
|--2--------------------|
|--2--------------------|
Tap to rate this tab
 
# A B C D E F G H I J K L M N O P Q R S T U V W X Y Z