Song name
# A B C D E F G H I J K L M N O P Q R S T U V W X Y Z

Bruno Mars - Long Distance chords

Highlighted       Show chord diagrams
Long Distance - Bruno Mars

I figured out the chords to this since there weren't any available at this site so 
I did everything by ear. Hope this is right and tell me what you think! Enjoy! 
e|-----|-----|------|-----|-----|-----|-----|-----|------|-----|-----|-----|
B|--1--|-----|--3---|--1--|-----|-----|-----|--1--|--3---|--3--|-----|--5--|
G|-----|-----|------|--3--|-----|--2--|-----|--2--|--2---|-----|--5--|--4--|
D|--2--|--2--|--2---|--2--|--3--|--3--|--2--|--2--|------|-----|--5--|--5--|
A|--3--|--3--|--3---|--3--|--3--|--3--|--2--|-----|------|--2--|--3--|--3--|
E|-----|-----|------|-----|--1--|--1--|-----|-----|------|--3--|-----|-----|
   C   Cmaj7 Cadd9  C7    Fm    F   Em    Am  Dsus2   G    Cm   Cm7
----------------------------------------------------------------------------
Verse:
C          Cmaj7       Cadd9             C7             Fm    F
  There's only so many songs that I can sing to pass the time
C         Cmaj7          Cadd9           C7            Fm    F
  And I'm running out of things to do to get you off my mind

Bridge:
Em                   Am
  All I have is this picture in a frame
Dsus2                    G
  That I hold close to see your face everyday 

Chorus:
C             Cmaj7            Am          
  With you is where I'd rather be
                           Cm
  But we're stuck where we are 
              Cm7
  and it's so hard
            Fm
  you're so far, this long distance is killing me
C             Cmaj7              Am          
  I wish that you were here with me
                           Cm
  But we're stuck where we are
              Cm7
  and it's so hard
            Fm
  you're so far, this long distance is killing me

(For this part play along with the piano)
 It’s so hard………………Where we are……You’re so far……This long distance is killing me (x2)
e|----------------------------------------------------------------------|
B|-1------1-----1--0-----0----0--1-----1----1---0-----0-----0-----------|
G|------0-----0--------0----0--------0----0---------0-----0-------------| 
D|----2-----2----2---2----2----2---2----2-----2---2-----2---------------|
A|-3---------------3-------------3--------------3-----------------------|
E|----------------------------------------------------------------------|


Verse 2:
C        Cmaj7             Cadd9         C7       
 Now the minutes feel like hours and the hours 
          Fm   F
 feel like days, While I'm away
C              Cmaj7          Cadd9          C7(slap)    Fm   
 You know right now I can't be home, but I'm coming home soon
       F
Coming home soon…


Bridge:
Em                   Am
  All I have is this picture in a frame
Dsus2                    G
  That I hold close to see your face everyday 


Chorus:
C             Cmaj7            Am          
  With you is where I'd rather be
                           Cm
  But we're stuck where we are 
              Cm7
  and it's so hard
            Fm
  you're so far, this long distance is killing me
C             Cmaj7              Am          
  I wish that you were here with me
                           Cm
  But we're stuck where we are
              Cm7
  and it's so hard
            Fm (slap)
  you're so far, 

Can you hear me crying!?

C   Cmaj7   Am
Ohh oh, ohh oh.. Can you hear me crying!? (x2)
C   Cmaj7   Am
Ohh oh, ohh oh, oh oh oh (x2)

Chorus:
C             Cmaj7            Am          
  With you is where I'd rather be
                           Cm
  But we're stuck where we are 
              Cm7
  and it's so hard
            Fm
  you're so far, this long distance is killing me
C             Cmaj7              Am          
  I wish that you were here with me
                           Cm
  But we're stuck where we are
              Cm7
  and it's so hard
            Fm
  you're so far, this long distance is killing me


It’s so hard………………Where we are……You’re so far……This long distance is killing me (x2)
e|----------------------------------------------------------------------|
B|-1------1-----1--0-----0----0--1-----1----1---0-----0-----0-----------|
G|------0-----0--------0----0--------0----0---------0-----0-------------|
D|----2-----2----2---2----2----2---2----2-----2---2-----2---------------|
A|-3---------------3-------------3--------------3-----------------------|
E|----------------------------------------------------------------------|


Outro:
C       Cmaj7        Cadd9            C7                  F~~~ 
There's only so many songs that I can sing to pass the... time.
Tap to rate this tab
 
# A B C D E F G H I J K L M N O P Q R S T U V W X Y Z