Song name
# A B C D E F G H I J K L M N O P Q R S T U V W X Y Z

Bruno Mars - Billionaire tab

These are the chords, from top to bottom, from their live acoustic performance on you 
it is basically played the same through out the whole song. you should check out the video 
help with picking and strumming..have fun

E---5-------------|
B---5-------------|
G---5----6--------|
D---5--------7----|
A---5--------7----|
E---5-------------|


E---9-------------|
B---9-------------|
G---9----10-------|
D---9--------11---|
A---9--------11---|
E---9-------------|

E---9-------------|
B---9----10-------|
G---9--------11---|
D---9--------11---|
A---9-------------|
E---9-------------|

E---7-------------|
B---7--------9----|
G---7--------9----|
D---7--------9----|
A---7-------------|
E---7-------------|
Tap to rate this tab
 
# A B C D E F G H I J K L M N O P Q R S T U V W X Y Z