Song name
# A B C D E F G H I J K L M N O P Q R S T U V W X Y Z

Bruno Mars - Billionaire tab

-------------------------------------------------------------------------------
			     Billionaire - Bruno Mars Ft.Travie McCoy
-------------------------------------------------------------------------------
Tabbed by:Jhustyne Balunsat

Email:jbrother1995@yahoo.com

Tuning:Standard


Intro
e|-----------------------------------------------------------------------|
B|----------------------------------------10-s-10-10-s-10----9-s-9-9-s-9-|
G|----6-s-6-6-s-6------10-s-10-10-s-10----11-s-11-11-s-11----9-s-9-9-s-9-|2x
D|----7-s-7-7-s-7------9--s-9--9--s-9-----11-s-11-11-s-11----9-s-9-9-s-9-|
A|----7-s-7-7-s-7------11-s-11-11-s-11--9-9--s-9--9--s-9---7-7-s-7-7-s-7-|
E|-5--5-s-5-5-s-5-/-7--9--s-9-9-s-9--------------------------------------|

Chorus
e|--------------------------------------|
B|-------------9-s-9----10-s-10-10-s-10-|
G|----7-s-7----9-s-9----11-s-11-11-s-11-|2x
D|----7-s-7----9-s-9----11-s-11-11-s-11-|
A|----5-s-5--7-7-s-7--9-9--s-9--9--s-9--|
E|--5-5-s-5-----------------------------|

e|--------------------------------------------------------------------|
B|---------------9-s-9-----12----11---10----9----7-s-7-7-s-7--6-6-6-6-|
G|-----7-s-7-----9-s-9-----14----13---11----9----7-s-7-7-s-7--6-6-6-6-|
D|-----7-s-7-----9-s-9-----14----13---11----9----7-s-7-7-s-7--6-6-6-6-|
A|-----5-s-5--7--7-s-7--12----11----9-----7---5--5-s-5-5-s-5--4-4-4-4-|
E|--5--5-s-5--------------------------------------------------4-4-4-4-|

Verse
e|-----------------------------------------------------------------------|
B|----------------------------------------10-x-10-10-x-10----9-x-9-9-x-9-|
G|----6-x-6-6-x-6------10-x-10-10-x-10----11-x-11-11-x-11----9-x-9-9-x-9-|3x
D|----7-x-7-7-x-7------9--x-9--9--x-9-----11-x-11-11-x-11----9-x-9-9-x-9-|
A|----7-x-7-7-x-7------11-x-11-11-x-11--9-9--x-9--9--x-9---7-7-x-7-7-x-7-|
E|-5--5-x-5-5-x-5-/-7--9--x-9--9--x-9------------------------------------|

Chorus
e|--------------------------------|
B|---------9~-----10-s-10-10-s-10-|
G|---7~----9~-----11-s-11-11-s-11-|2x
D|---7~----9~-----11-s-11-11-s-11-|
A|---5~----7~--9--9--s-9--9--s-9--|
E|---5~---------------------------|

e|---------------------------------------------------|
B|-----9~--12----11---10----9---7-s-7-7-s-7--6-6-6-6-|
G|-7~--9~--14----13---11----9---7-s-7-7-s-7--6-6-6-6-|
D|-7~--9~--14----13---11----9---7-s-7-7-s-7--6-6-6-6-|
A|-5~--7~--12----11----9----7---5-s-5-5-s-7--4-4-4-4-|
E|-5~----------------------------------------4-4-4-4-|

e|------------------------------------|
B|------------------------------------|
G|----3-s-3-----6-s-6----9-s-9-9-s-9--|
D|----4-s-4-----7-s-7----9-s-9-9-s-9--|
A|----4-s-4-----7-s-7----7-s-7-7-s-7--|
E|-2--2-s-2--5--5-s-5--7-7-s-7-7-s-7--|

Verse
e|-----------------------------------------------------------------------|
B|----------------------------------------10-x-10-10-x-10----9-x-9-9-x-9-|
G|----6-x-6-6-x-6------10-x-10-10-x-10----11-x-11-11-x-11----9-x-9-9-x-9-|3x
D|----7-x-7-7-x-7------9--x-9--9--x-9-----11-x-11-11-x-11----9-x-9-9-x-9-|
A|----7-x-7-7-x-7------11-x-11-11-x-11--9-9--x-9--9--x-9---7-7-x-7-7-x-7-|
E|-5--5-x-5-5-x-5-/-7--9--x-9--9--x-9------------------------------------|

Chorus
e|--------------------------------------|
B|-------------9-s-9----10-s-10-10-s-10-|
G|----7-s-7----9-s-9----11-s-11-11-s-11-|2x
D|----7-s-7----9-s-9----11-s-11-11-s-11-|
A|----5-s-5--7-7-s-7--9-9--s-9--9--s-9--|
E|--5-5-s-5-----------------------------|

e|--------------------------------------------------------------------|
B|---------------9-s-9-----12----11---10----9----7-s-7-7-s-7--6-6-6-6-|
G|-----7-s-7-----9-s-9-----14----13---11----9----7-s-7-7-s-7--6-6-6-6-|
D|-----7-s-7-----9-s-9-----14----13---11----9----7-s-7-7-s-7--6-6-6-6-|
A|-----5-s-5--7--7-s-7--12----11----9-----7---5--5-s-5-5-s-5--4-4-4-4-|
E|--5--5-s-5--------------------------------------------------4-4-4-4-|

e|------------------------------------|
B|------------------------------------|
G|----3-s-3-----6-s-6----9-s-9-9-s-9--|
D|----4-s-4-----7-s-7----9-s-9-9-s-9--|
A|----4-s-4-----7-s-7----7-s-7-7-s-7--|
E|-2--2-s-2--5--5-s-5--7-7-s-7-7-s-7--|

last part
e|-5-~--9--~-|
B|-5-~--9--~-|
G|-5-~--10-~-|
D|-7-~--9--~-|
A|-7-~--11-~-|
E|-5-~--9--~-|

-------------------------------------------------------------------------------

~ - vibrato 
s - slap down
x - palm mute
Tap to rate this tab
 
# A B C D E F G H I J K L M N O P Q R S T U V W X Y Z