Guitaretab - guitar tabs
Song name
# A B C D E F G H I J K L M N O P Q R S T U V W X Y Z

Bruno Mars - Talking To The Moon tab

Bruno Mars: Talking to the Moon

Video of me playing it: http://www.youtube.com/watch?v=htTCL0fzRdY&feature=mfu_in_order

Capo 2: Intro/Verse..the tab or just strum the chords above it for 4 measures

                          D
e|---2----------2-----------2--------------2---------------------------------|
B|--------3----------3------------3-----------------3------------------------|
G|---------------------------------------------------------------------------|
D|---------------------------------------------------------------------------|
A|---------------------------------------------------------------------------|
E|---------------------------------------------------------------------------|

                          F#7
e|---------------------------------------------------------------------------|
B|--2-------------2----------------2-------------------2---------------------|
G|--------3---------------3-----------------3--------------------3-----------|
D|---------------------------------------------------------------------------|
A|---------------------------------------------------------------------------|
E|---------------------------------------------------------------------------|


                         Bm
e|---------------------------------------------------------------------------|
B|------3---------------3-----------------3------------------3---------------|
G|--------------4---------------4-------------------4----------------4-------|
D|---------------------------------------------------------------------------|
A|---------------------------------------------------------------------------|
E|---------------------------------------------------------------------------|
[ Tab from: http://www.guitaretab.com/b/bruno-mars/251376.html ]
                  A                             G
e|---------------------------------------------------------------------------|
B|-------2------------2---------------3--------------3-----------------------|
G|-------------2-------------2---------------0----------------0--------------|
D|---------------------------------------------------------------------------|
A|---------------------------------------------------------------------------|
E|---------------------------------------------------------------------------|

                  G
e|---------------------------------------------------------------------------|
B|------3----------------3---------------------------------------------------|
G|--------------0----------------0-------------------------------------------|
D|---------------------------------------------------------------------------|
A|---------------------------------------------------------------------------|
E|---------------------------------------------------------------------------|


I know you're somewhere out there

Somewhere far away

I want you back

I want you back

My neighbors think I'm crazy

But they don't understand

You're all I have

You're all I have

Chorus:
Em                                    A
At night when the stars light up my room
Em                A
I sit by myself
              G-A-Bm
Talking to the Moon
              G-A-Bm
Try to get to You
    G                  A
In hopes you're on the other side
Bm     A        G
Talking to me too
  G       A
Or am I a fool
         A
who sits alone
                 Bm   A
Talking to the moon
  E
Ohhhhhh


I'm feeling like I'm famous
The talk of the town
They say
I've gone mad
Yeah
I've gone mad
But they don't know
what I know

Cause when the
sun goes down
someone's talking back
Yeah They're talking back

Chorus...
D
I know you're somewhere out there
F#7
Somewhere far away

End on Intro
Related for Talking To The Moon tab
×
Best way to learn
"Talking To The Moon"