Guitaretab - guitar tabs
Song name
# A B C D E F G H I J K L M N O P Q R S T U V W X Y Z

Bruno Mars - Grenade tab

----------------------------------------------------------------------------
                         Grenade- Bruno Mars
----------------------------------------------------------------------------
Tabbed by: Ryan
E-mail: hicupbob1993@yahoo.com
Please email me with questions or comments.

Capo on 5th fret. 

This can be repeated thoughout the song if you want to make it easy. 
just listen for when the pauses happen. Right before any pause, strum 
whichever chord is formed at that moment.
[ Tab from: http://www.guitaretab.com/b/bruno-mars/254842.html ]
e:|-------------------|-----------------|-----------------|----------------|
B:|-----1-1h3-1-------|-----3p1-1-------|-----------------|----------------|
G:|---0---------0---0-|---0-------0---0-|-----1h2-1-------|-----1h2-1------|
D:|---------------2---|-------------2---|---0-------0---0-|---0-------0---0|
A:|-0-----------------|-0---------------|-2-----------2---|-2-----------2--|
E:|-------------------|-----------------|-----------------|----------------|

This was just a quick tab.. Probably not 100% accurate.
Related for Grenade tab
Grenade chords by Bruno Mars