Guitaretab - guitar tabs
Song name
# A B C D E F G H I J K L M N O P Q R S T U V W X Y Z

Bruno Mars - Runaway Baby tab

RIFF - INTRO + VERSE 1 + BRIDGE
E --------------------------------|
B --------------------------------|
G ---8--6-8-----------------------|
D ----------8-6--6----6-8-6-------|
A 6-----------------9-------9-6---|
E --------------------------------| Repeat


RIFF - PRECHORUS + BRIDGE (for 2nd Guitar)
E ---11--9-11-------------------------|
B ------------11-9--9-----9-11-9------|
G 8--------------------11--------11-8-|
D ------------------------------------|
A ------------------------------------|
E ------------------------------------| Repeat


RIFF - VERSE 2
E ----------------------|
B ----------------------|
G ----------------------|
D -------------4-4-6----|
A --4-5-6----6----------|
E 6---------------------| Repeat


2nd GUITAR - VERSE 2
E ----------------------|
B ----------11--11------|
G ----------11--11------|
D ----------------------|
A ----------------------|
E ----------------------| Repeat



1st GUITAR - CHORUS
Plays chords
B | A# | D#m | G# |
B | A# | D#m | G# |
B | A# | D#m | G# |
B | A# | into verse riff


2nd GUITAR - CHORUS
Run Run Runaway Runaway Baby
E -11-11-11-11-11-11-11-11-|-10-10-10-10-10-10-10-10-|
B -12-12-12-12-12-12-12-12-|-11-11-11-11-11-11-11-11-|
G -11-11-11-11-11-11-11-11-|-10-10-10-10-10-10-10-10-|
D -------------------------|-------------------------|
A -------------------------|-------------------------|
E -------------------------|-------------------------|

Before I put my spell on you..... You'd better
E -11-11-11-11-11-11-11-11-|-11---11---11------------|
B -11-11-11-11-11-11-11-11-|-13---13---13------------|
G -11-11-11-11-11-11-11-11-|-13---13---13------------|
D -------------------------|-------------------------|
A -------------------------|-------------------------|
E -------------------------|-------------------------|

Get Get Getaway Getaway Darling
E -11-11-11-11-11-11-11-11-|-10-10-10-10-10-10-10-10-|
B -12-12-12-12-12-12-12-12-|-11-11-11-11-11-11-11-11-|
G -11-11-11-11-11-11-11-11-|-10-10-10-10-10-10-10-10-|
D -------------------------|-------------------------|
A -------------------------|-------------------------|
E -------------------------|-------------------------|
[ Tab from: http://www.guitaretab.com/b/bruno-mars/261922.html ]
Cos everything you heard is true.... Your poor little
E -11-11-11-11-11-11-11-11-|-11---11---11------------|
B -11-11-11-11-11-11-11-11-|-13---13---13------------|
G -11-11-11-11-11-11-11-11-|-13---13---13------------|
D -------------------------|-------------------------|
A -------------------------|-------------------------|
E -------------------------|-------------------------|

Heart will end up alone....... Cos Lord
E -11-11-11-11-11-11-11-11-|-10-10-10-10-10-10-10-10-|
B -12-12-12-12-12-12-12-12-|-11-11-11-11-11-11-11-11-|
G -11-11-11-11-11-11-11-11-|-10-10-10-10-10-10-10-10-|
D -------------------------|-------------------------|
A -------------------------|-------------------------|
E -------------------------|-------------------------|

Knows I'm a rolling stone............So you'd better
E -11-11-11-11-11-11-11-11-|-11---11---11------------|
B -11-11-11-11-11-11-11-11-|-13---13---13------------|
G -11-11-11-11-11-11-11-11-|-13---13---13------------|
D -------------------------|-------------------------|
A -------------------------|-------------------------|
E -------------------------|-------------------------|

Run Run Runaway Runaway Baby
E -11----11----11----11----|-10----------------------|
B -12----12----12----12----|-11----------------------|
G -11----11----11----11----|-10----------------------|
D -------------------------|-------------------------|
A -------------------------|-------------------------|
E -------------------------|-------------------------|


3rd GUITAR - final chorus, from the words
Heart will end up alone....... Cos Lord
E -------------------------|-------------------------|
B -------------------------|-------------------------|
G -------------------------|-------------------------|
D -------13-13-16-16-13-13-|-------12-12-15-15-12-12-|
A -14-14-------------------|-13-13-------------------|
E -------------------------|-------------------------|

Knows I'm a rolling stone............So you'd better
E -------------------------|-------------------------|
B -------------11-11-------|-------------------------|
G -------11-11-------11-11-|-------------------------|
D -13-13-------------------|-------10-10-13-13-10-10-|
A -------------------------|-11-11-------------------|
E -------------------------|-------------------------|

Run Run Runaway               Runaway Baby
E -------------------------|-------------------------|----|
B -------------------------|-------------------------|----|
G -------------------------|--------------------6--7-|--8-|
D --9-----9-----9-----9----|--8--------------8-------|----|
A -------------------------|-------------------------|----|
E -------------------------|-------------------------|----|


C-H-O-R-D-S
VERSE + PRECHORUS + BRIDGE
D#m | G# (repeat)

CHORUS
B | A# | D#m | G# |
B | A# | D#m | G# |
B | A# | D#m | G# |
B | A# | into verse riff
Related for Runaway Baby tab
Runaway Baby chords by Bruno Mars